ISO-10303-21;
HEADER;
/* Generated by software containing ST-Developer
 * from STEP Tools, Inc. (www.steptools.com) 
 */

FILE_DESCRIPTION(
/* description */ (''),
/* implementation_level */ '2;1');

FILE_NAME(
/* name */ 
'V:\\Produktentwicklung\\CAD\\Zubeh\X\F6r\\TechDok\\C-Mount-Adapter+Zw
ischenringe\\190.018.007.50_Zwischenring_0,5 mm\\3D-Modell\\Zwischenri
ng_0,5 mm.stp',
/* time_stamp */ '2021-11-03T15:05:06+01:00',
/* author */ (''),
/* organization */ (''),
/* preprocessor_version */ 'ST-DEVELOPER v16.5',
/* originating_system */ 'Autodesk Inventor 2017',
/* authorisation */ '');

FILE_SCHEMA (('AUTOMOTIVE_DESIGN { 1 0 10303 214 3 1 1 }'));
ENDSEC;

DATA;
#10=MECHANICAL_DESIGN_GEOMETRIC_PRESENTATION_REPRESENTATION('',(#56,#55,
#54,#58,#57),#113);
#11=SHAPE_REPRESENTATION_RELATIONSHIP('SRR','None',#122,#12);
#12=ADVANCED_BREP_SHAPE_REPRESENTATION('',(#13),#112);
#13=MANIFOLD_SOLID_BREP('Volumenk\X\F6rper1',#63);
#14=PLANE('',#77);
#15=PLANE('',#78);
#16=FACE_BOUND('',#25,.T.);
#17=FACE_BOUND('',#27,.T.);
#18=FACE_BOUND('',#29,.T.);
#19=FACE_BOUND('',#31,.T.);
#20=FACE_OUTER_BOUND('',#24,.T.);
#21=FACE_OUTER_BOUND('',#26,.T.);
#22=FACE_OUTER_BOUND('',#28,.T.);
#23=FACE_OUTER_BOUND('',#30,.T.);
#24=EDGE_LOOP('',(#44));
#25=EDGE_LOOP('',(#45));
#26=EDGE_LOOP('',(#46));
#27=EDGE_LOOP('',(#47));
#28=EDGE_LOOP('',(#48));
#29=EDGE_LOOP('',(#49));
#30=EDGE_LOOP('',(#50));
#31=EDGE_LOOP('',(#51));
#32=CIRCLE('',#72,13.);
#33=CIRCLE('',#73,13.);
#34=CIRCLE('',#75,15.5);
#35=CIRCLE('',#76,15.5);
#36=VERTEX_POINT('',#99);
#37=VERTEX_POINT('',#101);
#38=VERTEX_POINT('',#104);
#39=VERTEX_POINT('',#106);
#40=EDGE_CURVE('',#36,#36,#32,.T.);
#41=EDGE_CURVE('',#37,#37,#33,.T.);
#42=EDGE_CURVE('',#38,#38,#34,.T.);
#43=EDGE_CURVE('',#39,#39,#35,.T.);
#44=ORIENTED_EDGE('',*,*,#40,.F.);
#45=ORIENTED_EDGE('',*,*,#41,.F.);
#46=ORIENTED_EDGE('',*,*,#42,.T.);
#47=ORIENTED_EDGE('',*,*,#43,.F.);
#48=ORIENTED_EDGE('',*,*,#42,.F.);
#49=ORIENTED_EDGE('',*,*,#40,.T.);
#50=ORIENTED_EDGE('',*,*,#43,.T.);
#51=ORIENTED_EDGE('',*,*,#41,.T.);
#52=CYLINDRICAL_SURFACE('',#71,13.);
#53=CYLINDRICAL_SURFACE('',#74,15.5);
#54=STYLED_ITEM('',(#131),#59);
#55=STYLED_ITEM('',(#131),#60);
#56=STYLED_ITEM('',(#131),#61);
#57=STYLED_ITEM('',(#131),#62);
#58=STYLED_ITEM('',(#131),#13);
#59=ADVANCED_FACE('',(#20,#16),#52,.F.);
#60=ADVANCED_FACE('',(#21,#17),#53,.T.);
#61=ADVANCED_FACE('',(#22,#18),#14,.F.);
#62=ADVANCED_FACE('',(#23,#19),#15,.T.);
#63=CLOSED_SHELL('',(#59,#60,#61,#62));
#64=DATE_TIME_ROLE('creation_date');
#65=APPLIED_DATE_AND_TIME_ASSIGNMENT(#66,#64,(#124));
#66=DATE_AND_TIME(#67,#68);
#67=CALENDAR_DATE(2012,26,9);
#68=LOCAL_TIME(22,0,0.,#69);
#69=COORDINATED_UNIVERSAL_TIME_OFFSET(0,0,.BEHIND.);
#70=AXIS2_PLACEMENT_3D('placement',#97,#79,#80);
#71=AXIS2_PLACEMENT_3D('',#98,#81,#82);
#72=AXIS2_PLACEMENT_3D('',#100,#83,#84);
#73=AXIS2_PLACEMENT_3D('',#102,#85,#86);
#74=AXIS2_PLACEMENT_3D('',#103,#87,#88);
#75=AXIS2_PLACEMENT_3D('',#105,#89,#90);
#76=AXIS2_PLACEMENT_3D('',#107,#91,#92);
#77=AXIS2_PLACEMENT_3D('',#108,#93,#94);
#78=AXIS2_PLACEMENT_3D('',#109,#95,#96);
#79=DIRECTION('axis',(0.,0.,1.));
#80=DIRECTION('refdir',(1.,0.,0.));
#81=DIRECTION('center_axis',(0.,0.,-1.));
#82=DIRECTION('ref_axis',(-1.,0.,0.));
#83=DIRECTION('center_axis',(0.,0.,-1.));
#84=DIRECTION('ref_axis',(-1.,0.,0.));
#85=DIRECTION('center_axis',(0.,0.,1.));
#86=DIRECTION('ref_axis',(-1.,0.,0.));
#87=DIRECTION('center_axis',(0.,0.,1.));
#88=DIRECTION('ref_axis',(-1.,0.,0.));
#89=DIRECTION('center_axis',(0.,0.,-1.));
#90=DIRECTION('ref_axis',(-1.,0.,0.));
#91=DIRECTION('center_axis',(0.,0.,-1.));
#92=DIRECTION('ref_axis',(-1.,0.,0.));
#93=DIRECTION('center_axis',(0.,0.,-1.));
#94=DIRECTION('ref_axis',(-1.,0.,0.));
#95=DIRECTION('center_axis',(0.,0.,-1.));
#96=DIRECTION('ref_axis',(-1.,0.,0.));
#97=CARTESIAN_POINT('',(0.,0.,0.));
#98=CARTESIAN_POINT('Origin',(0.,0.,43.8434715778758));
#99=CARTESIAN_POINT('',(13.,-1.59204083889156E-15,0.499999999999998));
#100=CARTESIAN_POINT('Origin',(0.,0.,0.499999999999998));
#101=CARTESIAN_POINT('',(-13.,0.,0.));
#102=CARTESIAN_POINT('Origin',(0.,0.,0.));
#103=CARTESIAN_POINT('Origin',(0.,0.,0.));
#104=CARTESIAN_POINT('',(15.5,1.8982025386784E-15,0.5));
#105=CARTESIAN_POINT('Origin',(0.,0.,0.5));
#106=CARTESIAN_POINT('',(15.5,1.8982025386784E-15,0.));
#107=CARTESIAN_POINT('Origin',(0.,0.,0.));
#108=CARTESIAN_POINT('Origin',(0.,0.,0.5));
#109=CARTESIAN_POINT('Origin',(0.,0.,0.));
#110=UNCERTAINTY_MEASURE_WITH_UNIT(LENGTH_MEASURE(0.01),#114,
'DISTANCE_ACCURACY_VALUE',
'Maximum model space distance between geometric entities at asserted c
onnectivities');
#111=UNCERTAINTY_MEASURE_WITH_UNIT(LENGTH_MEASURE(1.E-6),#114,
'DISTANCE_ACCURACY_VALUE',
'Maximum model space distance between geometric entities at asserted c
onnectivities');
#112=(
GEOMETRIC_REPRESENTATION_CONTEXT(3)
GLOBAL_UNCERTAINTY_ASSIGNED_CONTEXT((#110))
GLOBAL_UNIT_ASSIGNED_CONTEXT((#114,#117,#115))
REPRESENTATION_CONTEXT('','3D')
);
#113=(
GEOMETRIC_REPRESENTATION_CONTEXT(3)
GLOBAL_UNCERTAINTY_ASSIGNED_CONTEXT((#111))
GLOBAL_UNIT_ASSIGNED_CONTEXT((#114,#117,#115))
REPRESENTATION_CONTEXT('','3D')
);
#114=(
LENGTH_UNIT()
NAMED_UNIT(*)
SI_UNIT(.MILLI.,.METRE.)
);
#115=(
NAMED_UNIT(*)
SI_UNIT($,.STERADIAN.)
SOLID_ANGLE_UNIT()
);
#116=DIMENSIONAL_EXPONENTS(0.,0.,0.,0.,0.,0.,0.);
#117=(
CONVERSION_BASED_UNIT('degree',#119)
NAMED_UNIT(#116)
PLANE_ANGLE_UNIT()
);
#118=(
NAMED_UNIT(*)
PLANE_ANGLE_UNIT()
SI_UNIT($,.RADIAN.)
);
#119=PLANE_ANGLE_MEASURE_WITH_UNIT(PLANE_ANGLE_MEASURE(0.01745329252),#118);
#120=SHAPE_DEFINITION_REPRESENTATION(#121,#122);
#121=PRODUCT_DEFINITION_SHAPE('',$,#124);
#122=SHAPE_REPRESENTATION('',(#70),#112);
#123=PRODUCT_DEFINITION_CONTEXT('part definition',#128,'design');
#124=PRODUCT_DEFINITION('Zwischenring_0,5 mm',
'Zwischenring_0,5 mm',#125,#123);
#125=PRODUCT_DEFINITION_FORMATION('',$,#130);
#126=PRODUCT_RELATED_PRODUCT_CATEGORY(
'Zwischenring_0,5 mm',
'Zwischenring_0,5 mm',(#130));
#127=APPLICATION_PROTOCOL_DEFINITION('international standard',
'automotive_design',2009,#128);
#128=APPLICATION_CONTEXT(
'Core Data for Automotive Mechanical Design Process');
#129=PRODUCT_CONTEXT('part definition',#128,'mechanical');
#130=PRODUCT('','Zwischenring_0,5 mm',
'',(#129));
#131=PRESENTATION_STYLE_ASSIGNMENT((#132));
#132=SURFACE_STYLE_USAGE(.BOTH.,#133);
#133=SURFACE_SIDE_STYLE('',(#134));
#134=SURFACE_STYLE_FILL_AREA(#135);
#135=FILL_AREA_STYLE('',(#136));
#136=FILL_AREA_STYLE_COLOUR('',#137);
#137=COLOUR_RGB('',0.149019607843137,0.149019607843137,0.149019607843137);
ENDSEC;
END-ISO-10303-21;
