ISO-10303-21;
HEADER;
/* Generated by software containing ST-Developer
 * from STEP Tools, Inc. (www.steptools.com) 
 */
/* OPTION: using custom schema-name function */

FILE_DESCRIPTION(
/* description */ (''),
/* implementation_level */ '2;1');

FILE_NAME(
/* name */ 'FL-CC0614A-2M_spec.stp',
/* time_stamp */ '2014-05-09T10:37:24+02:00',
/* author */ (''),
/* organization */ (''),
/* preprocessor_version */ 'ST-DEVELOPER v15',
/* originating_system */ 'SIEMENS PLM Software NX 8.5',
/* authorisation */ '');

FILE_SCHEMA (('AUTOMOTIVE_DESIGN { 1 0 10303 214 3 1 1 1 }'));
ENDSEC;

DATA;
#10=SHAPE_REPRESENTATION_RELATIONSHIP('None',
'relationship between FL-CC0614A-2M_spec-None and FL-CC0614A-2M_spec-N
one',#22,#11);
#11=ADVANCED_BREP_SHAPE_REPRESENTATION('FL-CC0614A-2M_spec-None',(#32),
#685);
#12=SHAPE_DEFINITION_REPRESENTATION(#13,#22);
#13=PRODUCT_DEFINITION_SHAPE('','',#14);
#14=PRODUCT_DEFINITION(' ','',#16,#15);
#15=PRODUCT_DEFINITION_CONTEXT('part definition',#21,'design');
#16=PRODUCT_DEFINITION_FORMATION_WITH_SPECIFIED_SOURCE(' ',' ',#18,
 .NOT_KNOWN.);
#17=PRODUCT_RELATED_PRODUCT_CATEGORY('part','',(#18));
#18=PRODUCT('FL-CC0614A-2M_spec','FL-CC0614A-2M_spec',' ',(#19));
#19=PRODUCT_CONTEXT(' ',#21,'mechanical');
#20=APPLICATION_PROTOCOL_DEFINITION('international standard',
'automotive_design',2010,#21);
#21=APPLICATION_CONTEXT(
'core data for automotive mechanical design processes');
#22=SHAPE_REPRESENTATION('FL-CC0614A-2M_spec-None',(#388),#685);
#23=PRESENTATION_LAYER_ASSIGNMENT('1','Layer 1',(#32));
#24=STYLED_ITEM('',(#25),#32);
#25=PRESENTATION_STYLE_ASSIGNMENT((#26));
#26=SURFACE_STYLE_USAGE(.BOTH.,#27);
#27=SURFACE_SIDE_STYLE('',(#28));
#28=SURFACE_STYLE_FILL_AREA(#29);
#29=FILL_AREA_STYLE('',(#30));
#30=FILL_AREA_STYLE_COLOUR('',#31);
#31=COLOUR_RGB('Medium Steel',0.596063172350652,0.666666666666667,0.686259250782025);
#32=MANIFOLD_SOLID_BREP('',#33);
#33=CLOSED_SHELL('',(#118,#119,#120,#121,#122,#123,#124,#125,#126,#127,
#128,#129,#130,#131,#132,#133,#134,#135,#136,#137,#138,#139,#140,#141,#142,
#143,#144,#145,#146,#147,#148,#149,#150));
#34=CONICAL_SURFACE('',#412,19.5,44.9999999999997);
#35=CONICAL_SURFACE('',#414,20.,45.);
#36=CONICAL_SURFACE('',#444,14.75,45.);
#37=CONICAL_SURFACE('',#445,22.25,45.);
#38=CONICAL_SURFACE('',#446,24.,45.);
#39=CONICAL_SURFACE('',#447,23.75,45.);
#40=CONICAL_SURFACE('',#448,20.75,45.);
#41=CONICAL_SURFACE('',#449,19.75,45.);
#42=CONICAL_SURFACE('',#450,20.,45.);
#43=CONICAL_SURFACE('',#451,19.55,45.);
#44=CONICAL_SURFACE('',#452,10.85,45.);
#45=CONICAL_SURFACE('',#453,12.,45.);
#46=CYLINDRICAL_SURFACE('',#393,11.1);
#47=CYLINDRICAL_SURFACE('',#398,12.75);
#48=CYLINDRICAL_SURFACE('',#402,12.25);
#49=CYLINDRICAL_SURFACE('',#410,19.8);
#50=CYLINDRICAL_SURFACE('',#416,20.);
#51=CYLINDRICAL_SURFACE('',#421,18.75);
#52=CYLINDRICAL_SURFACE('',#426,20.);
#53=CYLINDRICAL_SURFACE('',#431,21.);
#54=CYLINDRICAL_SURFACE('',#436,24.);
#55=CYLINDRICAL_SURFACE('',#442,22.);
#56=FACE_BOUND('',#165,.T.);
#57=FACE_BOUND('',#166,.T.);
#58=FACE_BOUND('',#167,.T.);
#59=FACE_BOUND('',#168,.T.);
#60=FACE_BOUND('',#169,.T.);
#61=FACE_BOUND('',#170,.T.);
#62=FACE_BOUND('',#171,.T.);
#63=FACE_BOUND('',#172,.T.);
#64=FACE_BOUND('',#173,.T.);
#65=FACE_BOUND('',#174,.T.);
#66=FACE_BOUND('',#175,.T.);
#67=FACE_BOUND('',#176,.T.);
#68=FACE_BOUND('',#177,.T.);
#69=FACE_BOUND('',#178,.T.);
#70=FACE_BOUND('',#179,.T.);
#71=FACE_BOUND('',#180,.T.);
#72=FACE_BOUND('',#181,.T.);
#73=FACE_BOUND('',#182,.T.);
#74=FACE_BOUND('',#183,.T.);
#75=FACE_BOUND('',#184,.T.);
#76=FACE_BOUND('',#185,.T.);
#77=FACE_BOUND('',#186,.T.);
#78=FACE_BOUND('',#187,.T.);
#79=FACE_BOUND('',#188,.T.);
#80=FACE_BOUND('',#189,.T.);
#81=FACE_BOUND('',#190,.T.);
#82=FACE_BOUND('',#191,.T.);
#83=FACE_BOUND('',#192,.T.);
#84=FACE_BOUND('',#193,.T.);
#85=FACE_BOUND('',#194,.T.);
#86=FACE_BOUND('',#195,.T.);
#87=FACE_BOUND('',#196,.T.);
#88=FACE_BOUND('',#197,.T.);
#89=FACE_BOUND('',#198,.T.);
#90=FACE_BOUND('',#199,.T.);
#91=FACE_BOUND('',#200,.T.);
#92=FACE_BOUND('',#201,.T.);
#93=FACE_BOUND('',#202,.T.);
#94=FACE_BOUND('',#203,.T.);
#95=FACE_BOUND('',#204,.T.);
#96=FACE_BOUND('',#205,.T.);
#97=FACE_BOUND('',#206,.T.);
#98=FACE_BOUND('',#208,.T.);
#99=FACE_BOUND('',#209,.T.);
#100=FACE_BOUND('',#210,.T.);
#101=FACE_BOUND('',#211,.T.);
#102=FACE_BOUND('',#212,.T.);
#103=FACE_BOUND('',#213,.T.);
#104=FACE_BOUND('',#214,.T.);
#105=FACE_BOUND('',#215,.T.);
#106=FACE_BOUND('',#216,.T.);
#107=FACE_BOUND('',#217,.T.);
#108=FACE_BOUND('',#218,.T.);
#109=FACE_BOUND('',#219,.T.);
#110=FACE_BOUND('',#220,.T.);
#111=FACE_BOUND('',#221,.T.);
#112=FACE_BOUND('',#222,.T.);
#113=FACE_BOUND('',#223,.T.);
#114=FACE_BOUND('',#224,.T.);
#115=FACE_BOUND('',#225,.T.);
#116=FACE_BOUND('',#226,.T.);
#117=FACE_BOUND('',#227,.T.);
#118=ADVANCED_FACE('',(#162),#151,.F.);
#119=ADVANCED_FACE('',(#56,#57),#46,.T.);
#120=ADVANCED_FACE('',(#58,#59),#152,.F.);
#121=ADVANCED_FACE('',(#60,#61),#47,.T.);
#122=ADVANCED_FACE('',(#62,#63),#153,.F.);
#123=ADVANCED_FACE('',(#64,#65),#48,.T.);
#124=ADVANCED_FACE('',(#66,#67),#154,.F.);
#125=ADVANCED_FACE('',(#68,#69),#155,.F.);
#126=ADVANCED_FACE('',(#70,#71),#49,.T.);
#127=ADVANCED_FACE('',(#72,#73),#34,.T.);
#128=ADVANCED_FACE('',(#74,#75),#35,.T.);
#129=ADVANCED_FACE('',(#76,#77),#50,.T.);
#130=ADVANCED_FACE('',(#78,#79),#156,.F.);
#131=ADVANCED_FACE('',(#80,#81),#51,.T.);
#132=ADVANCED_FACE('',(#82,#83),#157,.F.);
#133=ADVANCED_FACE('',(#84,#85),#52,.T.);
#134=ADVANCED_FACE('',(#86,#87),#158,.F.);
#135=ADVANCED_FACE('',(#88,#89),#53,.T.);
#136=ADVANCED_FACE('',(#90,#91),#159,.F.);
#137=ADVANCED_FACE('',(#92,#93),#54,.T.);
#138=ADVANCED_FACE('',(#94,#95),#160,.F.);
#139=ADVANCED_FACE('',(#96,#97),#55,.F.);
#140=ADVANCED_FACE('',(#163),#161,.F.);
#141=ADVANCED_FACE('',(#98,#99),#36,.T.);
#142=ADVANCED_FACE('',(#100,#101),#37,.F.);
#143=ADVANCED_FACE('',(#102,#103),#38,.T.);
#144=ADVANCED_FACE('',(#104,#105),#39,.T.);
#145=ADVANCED_FACE('',(#106,#107),#40,.T.);
#146=ADVANCED_FACE('',(#108,#109),#41,.T.);
#147=ADVANCED_FACE('',(#110,#111),#42,.T.);
#148=ADVANCED_FACE('',(#112,#113),#43,.T.);
#149=ADVANCED_FACE('',(#114,#115),#44,.T.);
#150=ADVANCED_FACE('',(#116,#117),#45,.T.);
#151=PLANE('',#390);
#152=PLANE('',#395);
#153=PLANE('',#400);
#154=PLANE('',#404);
#155=PLANE('',#407);
#156=PLANE('',#419);
#157=PLANE('',#423);
#158=PLANE('',#428);
#159=PLANE('',#433);
#160=PLANE('',#439);
#161=PLANE('',#443);
#162=FACE_OUTER_BOUND('',#164,.T.);
#163=FACE_OUTER_BOUND('',#207,.T.);
#164=EDGE_LOOP('',(#228));
#165=EDGE_LOOP('',(#229));
#166=EDGE_LOOP('',(#230));
#167=EDGE_LOOP('',(#231));
#168=EDGE_LOOP('',(#232));
#169=EDGE_LOOP('',(#233));
#170=EDGE_LOOP('',(#234));
#171=EDGE_LOOP('',(#235));
#172=EDGE_LOOP('',(#236));
#173=EDGE_LOOP('',(#237));
#174=EDGE_LOOP('',(#238));
#175=EDGE_LOOP('',(#239));
#176=EDGE_LOOP('',(#240));
#177=EDGE_LOOP('',(#241));
#178=EDGE_LOOP('',(#242));
#179=EDGE_LOOP('',(#243));
#180=EDGE_LOOP('',(#244));
#181=EDGE_LOOP('',(#245));
#182=EDGE_LOOP('',(#246));
#183=EDGE_LOOP('',(#247));
#184=EDGE_LOOP('',(#248));
#185=EDGE_LOOP('',(#249));
#186=EDGE_LOOP('',(#250));
#187=EDGE_LOOP('',(#251));
#188=EDGE_LOOP('',(#252));
#189=EDGE_LOOP('',(#253));
#190=EDGE_LOOP('',(#254));
#191=EDGE_LOOP('',(#255));
#192=EDGE_LOOP('',(#256));
#193=EDGE_LOOP('',(#257));
#194=EDGE_LOOP('',(#258));
#195=EDGE_LOOP('',(#259));
#196=EDGE_LOOP('',(#260));
#197=EDGE_LOOP('',(#261));
#198=EDGE_LOOP('',(#262));
#199=EDGE_LOOP('',(#263));
#200=EDGE_LOOP('',(#264));
#201=EDGE_LOOP('',(#265));
#202=EDGE_LOOP('',(#266));
#203=EDGE_LOOP('',(#267));
#204=EDGE_LOOP('',(#268));
#205=EDGE_LOOP('',(#269));
#206=EDGE_LOOP('',(#270));
#207=EDGE_LOOP('',(#271));
#208=EDGE_LOOP('',(#272));
#209=EDGE_LOOP('',(#273));
#210=EDGE_LOOP('',(#274));
#211=EDGE_LOOP('',(#275));
#212=EDGE_LOOP('',(#276));
#213=EDGE_LOOP('',(#277));
#214=EDGE_LOOP('',(#278));
#215=EDGE_LOOP('',(#279));
#216=EDGE_LOOP('',(#280));
#217=EDGE_LOOP('',(#281));
#218=EDGE_LOOP('',(#282));
#219=EDGE_LOOP('',(#283));
#220=EDGE_LOOP('',(#284));
#221=EDGE_LOOP('',(#285));
#222=EDGE_LOOP('',(#286));
#223=EDGE_LOOP('',(#287));
#224=EDGE_LOOP('',(#288));
#225=EDGE_LOOP('',(#289));
#226=EDGE_LOOP('',(#290));
#227=EDGE_LOOP('',(#291));
#228=ORIENTED_EDGE('',*,*,#324,.T.);
#229=ORIENTED_EDGE('',*,*,#325,.T.);
#230=ORIENTED_EDGE('',*,*,#326,.T.);
#231=ORIENTED_EDGE('',*,*,#327,.T.);
#232=ORIENTED_EDGE('',*,*,#326,.F.);
#233=ORIENTED_EDGE('',*,*,#328,.T.);
#234=ORIENTED_EDGE('',*,*,#329,.T.);
#235=ORIENTED_EDGE('',*,*,#329,.F.);
#236=ORIENTED_EDGE('',*,*,#330,.T.);
#237=ORIENTED_EDGE('',*,*,#330,.F.);
#238=ORIENTED_EDGE('',*,*,#331,.T.);
#239=ORIENTED_EDGE('',*,*,#332,.T.);
#240=ORIENTED_EDGE('',*,*,#331,.F.);
#241=ORIENTED_EDGE('',*,*,#333,.T.);
#242=ORIENTED_EDGE('',*,*,#334,.F.);
#243=ORIENTED_EDGE('',*,*,#335,.T.);
#244=ORIENTED_EDGE('',*,*,#336,.T.);
#245=ORIENTED_EDGE('',*,*,#336,.F.);
#246=ORIENTED_EDGE('',*,*,#337,.T.);
#247=ORIENTED_EDGE('',*,*,#337,.F.);
#248=ORIENTED_EDGE('',*,*,#338,.T.);
#249=ORIENTED_EDGE('',*,*,#339,.T.);
#250=ORIENTED_EDGE('',*,*,#338,.F.);
#251=ORIENTED_EDGE('',*,*,#340,.T.);
#252=ORIENTED_EDGE('',*,*,#341,.T.);
#253=ORIENTED_EDGE('',*,*,#341,.F.);
#254=ORIENTED_EDGE('',*,*,#342,.T.);
#255=ORIENTED_EDGE('',*,*,#343,.T.);
#256=ORIENTED_EDGE('',*,*,#342,.F.);
#257=ORIENTED_EDGE('',*,*,#344,.T.);
#258=ORIENTED_EDGE('',*,*,#345,.T.);
#259=ORIENTED_EDGE('',*,*,#346,.T.);
#260=ORIENTED_EDGE('',*,*,#345,.F.);
#261=ORIENTED_EDGE('',*,*,#347,.T.);
#262=ORIENTED_EDGE('',*,*,#348,.T.);
#263=ORIENTED_EDGE('',*,*,#349,.T.);
#264=ORIENTED_EDGE('',*,*,#348,.F.);
#265=ORIENTED_EDGE('',*,*,#350,.T.);
#266=ORIENTED_EDGE('',*,*,#351,.T.);
#267=ORIENTED_EDGE('',*,*,#352,.T.);
#268=ORIENTED_EDGE('',*,*,#353,.T.);
#269=ORIENTED_EDGE('',*,*,#354,.T.);
#270=ORIENTED_EDGE('',*,*,#355,.T.);
#271=ORIENTED_EDGE('',*,*,#355,.F.);
#272=ORIENTED_EDGE('',*,*,#334,.T.);
#273=ORIENTED_EDGE('',*,*,#332,.F.);
#274=ORIENTED_EDGE('',*,*,#354,.F.);
#275=ORIENTED_EDGE('',*,*,#352,.F.);
#276=ORIENTED_EDGE('',*,*,#353,.F.);
#277=ORIENTED_EDGE('',*,*,#350,.F.);
#278=ORIENTED_EDGE('',*,*,#351,.F.);
#279=ORIENTED_EDGE('',*,*,#349,.F.);
#280=ORIENTED_EDGE('',*,*,#347,.F.);
#281=ORIENTED_EDGE('',*,*,#346,.F.);
#282=ORIENTED_EDGE('',*,*,#344,.F.);
#283=ORIENTED_EDGE('',*,*,#343,.F.);
#284=ORIENTED_EDGE('',*,*,#340,.F.);
#285=ORIENTED_EDGE('',*,*,#339,.F.);
#286=ORIENTED_EDGE('',*,*,#335,.F.);
#287=ORIENTED_EDGE('',*,*,#333,.F.);
#288=ORIENTED_EDGE('',*,*,#325,.F.);
#289=ORIENTED_EDGE('',*,*,#324,.F.);
#290=ORIENTED_EDGE('',*,*,#328,.F.);
#291=ORIENTED_EDGE('',*,*,#327,.F.);
#292=VERTEX_POINT('',#588);
#293=VERTEX_POINT('',#591);
#294=VERTEX_POINT('',#593);
#295=VERTEX_POINT('',#596);
#296=VERTEX_POINT('',#599);
#297=VERTEX_POINT('',#601);
#298=VERTEX_POINT('',#604);
#299=VERTEX_POINT('',#607);
#300=VERTEX_POINT('',#610);
#301=VERTEX_POINT('',#613);
#302=VERTEX_POINT('',#615);
#303=VERTEX_POINT('',#618);
#304=VERTEX_POINT('',#620);
#305=VERTEX_POINT('',#623);
#306=VERTEX_POINT('',#626);
#307=VERTEX_POINT('',#629);
#308=VERTEX_POINT('',#632);
#309=VERTEX_POINT('',#634);
#310=VERTEX_POINT('',#637);
#311=VERTEX_POINT('',#640);
#312=VERTEX_POINT('',#643);
#313=VERTEX_POINT('',#645);
#314=VERTEX_POINT('',#648);
#315=VERTEX_POINT('',#651);
#316=VERTEX_POINT('',#653);
#317=VERTEX_POINT('',#656);
#318=VERTEX_POINT('',#659);
#319=VERTEX_POINT('',#661);
#320=VERTEX_POINT('',#664);
#321=VERTEX_POINT('',#666);
#322=VERTEX_POINT('',#669);
#323=VERTEX_POINT('',#671);
#324=EDGE_CURVE('',#292,#292,#356,.T.);
#325=EDGE_CURVE('',#293,#293,#357,.T.);
#326=EDGE_CURVE('',#294,#294,#358,.T.);
#327=EDGE_CURVE('',#295,#295,#359,.T.);
#328=EDGE_CURVE('',#296,#296,#360,.T.);
#329=EDGE_CURVE('',#297,#297,#361,.T.);
#330=EDGE_CURVE('',#298,#298,#362,.T.);
#331=EDGE_CURVE('',#299,#299,#363,.T.);
#332=EDGE_CURVE('',#300,#300,#364,.T.);
#333=EDGE_CURVE('',#301,#301,#365,.T.);
#334=EDGE_CURVE('',#302,#302,#366,.T.);
#335=EDGE_CURVE('',#303,#303,#367,.T.);
#336=EDGE_CURVE('',#304,#304,#368,.T.);
#337=EDGE_CURVE('',#305,#305,#369,.T.);
#338=EDGE_CURVE('',#306,#306,#370,.T.);
#339=EDGE_CURVE('',#307,#307,#371,.T.);
#340=EDGE_CURVE('',#308,#308,#372,.T.);
#341=EDGE_CURVE('',#309,#309,#373,.T.);
#342=EDGE_CURVE('',#310,#310,#374,.T.);
#343=EDGE_CURVE('',#311,#311,#375,.T.);
#344=EDGE_CURVE('',#312,#312,#376,.T.);
#345=EDGE_CURVE('',#313,#313,#377,.T.);
#346=EDGE_CURVE('',#314,#314,#378,.T.);
#347=EDGE_CURVE('',#315,#315,#379,.T.);
#348=EDGE_CURVE('',#316,#316,#380,.T.);
#349=EDGE_CURVE('',#317,#317,#381,.T.);
#350=EDGE_CURVE('',#318,#318,#382,.T.);
#351=EDGE_CURVE('',#319,#319,#383,.T.);
#352=EDGE_CURVE('',#320,#320,#384,.T.);
#353=EDGE_CURVE('',#321,#321,#385,.T.);
#354=EDGE_CURVE('',#322,#322,#386,.T.);
#355=EDGE_CURVE('',#323,#323,#387,.T.);
#356=CIRCLE('',#389,10.85);
#357=CIRCLE('',#391,11.1);
#358=CIRCLE('',#392,11.1);
#359=CIRCLE('',#394,12.);
#360=CIRCLE('',#396,12.75);
#361=CIRCLE('',#397,12.75);
#362=CIRCLE('',#399,12.25);
#363=CIRCLE('',#401,12.25);
#364=CIRCLE('',#403,14.75);
#365=CIRCLE('',#405,19.55);
#366=CIRCLE('',#406,15.);
#367=CIRCLE('',#408,19.8);
#368=CIRCLE('',#409,19.8);
#369=CIRCLE('',#411,19.5);
#370=CIRCLE('',#413,20.);
#371=CIRCLE('',#415,20.);
#372=CIRCLE('',#417,19.75);
#373=CIRCLE('',#418,18.75);
#374=CIRCLE('',#420,18.75);
#375=CIRCLE('',#422,19.75);
#376=CIRCLE('',#424,20.);
#377=CIRCLE('',#425,20.);
#378=CIRCLE('',#427,20.75);
#379=CIRCLE('',#429,21.);
#380=CIRCLE('',#430,21.);
#381=CIRCLE('',#432,23.75);
#382=CIRCLE('',#434,24.);
#383=CIRCLE('',#435,24.);
#384=CIRCLE('',#437,22.25);
#385=CIRCLE('',#438,23.75);
#386=CIRCLE('',#440,22.);
#387=CIRCLE('',#441,22.);
#388=AXIS2_PLACEMENT_3D('',#586,#454,#455);
#389=AXIS2_PLACEMENT_3D('',#587,#456,#457);
#390=AXIS2_PLACEMENT_3D('',#589,#458,#459);
#391=AXIS2_PLACEMENT_3D('',#590,#460,#461);
#392=AXIS2_PLACEMENT_3D('',#592,#462,#463);
#393=AXIS2_PLACEMENT_3D('',#594,#464,#465);
#394=AXIS2_PLACEMENT_3D('',#595,#466,#467);
#395=AXIS2_PLACEMENT_3D('',#597,#468,#469);
#396=AXIS2_PLACEMENT_3D('',#598,#470,#471);
#397=AXIS2_PLACEMENT_3D('',#600,#472,#473);
#398=AXIS2_PLACEMENT_3D('',#602,#474,#475);
#399=AXIS2_PLACEMENT_3D('',#603,#476,#477);
#400=AXIS2_PLACEMENT_3D('',#605,#478,#479);
#401=AXIS2_PLACEMENT_3D('',#606,#480,#481);
#402=AXIS2_PLACEMENT_3D('',#608,#482,#483);
#403=AXIS2_PLACEMENT_3D('',#609,#484,#485);
#404=AXIS2_PLACEMENT_3D('',#611,#486,#487);
#405=AXIS2_PLACEMENT_3D('',#612,#488,#489);
#406=AXIS2_PLACEMENT_3D('',#614,#490,#491);
#407=AXIS2_PLACEMENT_3D('',#616,#492,#493);
#408=AXIS2_PLACEMENT_3D('',#617,#494,#495);
#409=AXIS2_PLACEMENT_3D('',#619,#496,#497);
#410=AXIS2_PLACEMENT_3D('',#621,#498,#499);
#411=AXIS2_PLACEMENT_3D('',#622,#500,#501);
#412=AXIS2_PLACEMENT_3D('',#624,#502,#503);
#413=AXIS2_PLACEMENT_3D('',#625,#504,#505);
#414=AXIS2_PLACEMENT_3D('',#627,#506,#507);
#415=AXIS2_PLACEMENT_3D('',#628,#508,#509);
#416=AXIS2_PLACEMENT_3D('',#630,#510,#511);
#417=AXIS2_PLACEMENT_3D('',#631,#512,#513);
#418=AXIS2_PLACEMENT_3D('',#633,#514,#515);
#419=AXIS2_PLACEMENT_3D('',#635,#516,#517);
#420=AXIS2_PLACEMENT_3D('',#636,#518,#519);
#421=AXIS2_PLACEMENT_3D('',#638,#520,#521);
#422=AXIS2_PLACEMENT_3D('',#639,#522,#523);
#423=AXIS2_PLACEMENT_3D('',#641,#524,#525);
#424=AXIS2_PLACEMENT_3D('',#642,#526,#527);
#425=AXIS2_PLACEMENT_3D('',#644,#528,#529);
#426=AXIS2_PLACEMENT_3D('',#646,#530,#531);
#427=AXIS2_PLACEMENT_3D('',#647,#532,#533);
#428=AXIS2_PLACEMENT_3D('',#649,#534,#535);
#429=AXIS2_PLACEMENT_3D('',#650,#536,#537);
#430=AXIS2_PLACEMENT_3D('',#652,#538,#539);
#431=AXIS2_PLACEMENT_3D('',#654,#540,#541);
#432=AXIS2_PLACEMENT_3D('',#655,#542,#543);
#433=AXIS2_PLACEMENT_3D('',#657,#544,#545);
#434=AXIS2_PLACEMENT_3D('',#658,#546,#547);
#435=AXIS2_PLACEMENT_3D('',#660,#548,#549);
#436=AXIS2_PLACEMENT_3D('',#662,#550,#551);
#437=AXIS2_PLACEMENT_3D('',#663,#552,#553);
#438=AXIS2_PLACEMENT_3D('',#665,#554,#555);
#439=AXIS2_PLACEMENT_3D('',#667,#556,#557);
#440=AXIS2_PLACEMENT_3D('',#668,#558,#559);
#441=AXIS2_PLACEMENT_3D('',#670,#560,#561);
#442=AXIS2_PLACEMENT_3D('',#672,#562,#563);
#443=AXIS2_PLACEMENT_3D('',#673,#564,#565);
#444=AXIS2_PLACEMENT_3D('',#674,#566,#567);
#445=AXIS2_PLACEMENT_3D('',#675,#568,#569);
#446=AXIS2_PLACEMENT_3D('',#676,#570,#571);
#447=AXIS2_PLACEMENT_3D('',#677,#572,#573);
#448=AXIS2_PLACEMENT_3D('',#678,#574,#575);
#449=AXIS2_PLACEMENT_3D('',#679,#576,#577);
#450=AXIS2_PLACEMENT_3D('',#680,#578,#579);
#451=AXIS2_PLACEMENT_3D('',#681,#580,#581);
#452=AXIS2_PLACEMENT_3D('',#682,#582,#583);
#453=AXIS2_PLACEMENT_3D('',#683,#584,#585);
#454=DIRECTION('',(0.,0.,1.));
#455=DIRECTION('',(1.,0.,0.));
#456=DIRECTION('',(1.,0.,0.));
#457=DIRECTION('',(0.,0.,1.));
#458=DIRECTION('',(-1.,0.,0.));
#459=DIRECTION('',(0.,0.,1.));
#460=DIRECTION('',(-1.,0.,0.));
#461=DIRECTION('',(0.,0.,1.));
#462=DIRECTION('',(1.,0.,0.));
#463=DIRECTION('',(0.,0.,-1.));
#464=DIRECTION('',(1.,0.,0.));
#465=DIRECTION('',(0.,0.,-1.));
#466=DIRECTION('',(1.,0.,0.));
#467=DIRECTION('',(0.,0.,1.));
#468=DIRECTION('',(-1.,0.,0.));
#469=DIRECTION('',(0.,0.,1.));
#470=DIRECTION('',(-1.,0.,0.));
#471=DIRECTION('',(0.,0.,1.));
#472=DIRECTION('',(1.,0.,0.));
#473=DIRECTION('',(0.,0.,-1.));
#474=DIRECTION('',(1.,0.,0.));
#475=DIRECTION('',(0.,0.,-1.));
#476=DIRECTION('',(1.,0.,0.));
#477=DIRECTION('',(0.,0.,-1.));
#478=DIRECTION('',(1.,0.,0.));
#479=DIRECTION('',(0.,0.,-1.));
#480=DIRECTION('',(1.,0.,0.));
#481=DIRECTION('',(0.,0.,-1.));
#482=DIRECTION('',(1.,0.,0.));
#483=DIRECTION('',(0.,0.,-1.));
#484=DIRECTION('',(1.,0.,0.));
#485=DIRECTION('',(0.,0.,1.));
#486=DIRECTION('',(-1.,0.,0.));
#487=DIRECTION('',(0.,0.,1.));
#488=DIRECTION('',(1.,0.,0.));
#489=DIRECTION('',(0.,0.,1.));
#490=DIRECTION('',(1.,0.,0.));
#491=DIRECTION('',(0.,0.,-1.));
#492=DIRECTION('',(-1.,0.,0.));
#493=DIRECTION('',(0.,0.,1.));
#494=DIRECTION('',(-1.,0.,0.));
#495=DIRECTION('',(0.,0.,1.));
#496=DIRECTION('',(1.,0.,0.));
#497=DIRECTION('',(0.,0.,-1.));
#498=DIRECTION('',(1.,0.,0.));
#499=DIRECTION('',(0.,0.,-1.));
#500=DIRECTION('',(1.,0.,0.));
#501=DIRECTION('',(0.,0.,-1.));
#502=DIRECTION('',(1.,0.,0.));
#503=DIRECTION('',(4.76432146418354E-017,0.,-1.));
#504=DIRECTION('',(1.,0.,0.));
#505=DIRECTION('',(0.,0.,-1.));
#506=DIRECTION('',(-1.,0.,0.));
#507=DIRECTION('',(-6.80283716069336E-018,0.,1.));
#508=DIRECTION('',(1.,0.,0.));
#509=DIRECTION('',(0.,0.,-1.));
#510=DIRECTION('',(1.,0.,0.));
#511=DIRECTION('',(0.,0.,-1.));
#512=DIRECTION('',(-1.,0.,0.));
#513=DIRECTION('',(0.,0.,-1.));
#514=DIRECTION('',(1.,0.,0.));
#515=DIRECTION('',(0.,0.,-1.));
#516=DIRECTION('',(1.,0.,0.));
#517=DIRECTION('',(0.,0.,-1.));
#518=DIRECTION('',(1.,0.,0.));
#519=DIRECTION('',(0.,0.,-1.));
#520=DIRECTION('',(1.,0.,0.));
#521=DIRECTION('',(0.,0.,-1.));
#522=DIRECTION('',(1.,0.,0.));
#523=DIRECTION('',(0.,0.,1.));
#524=DIRECTION('',(-1.,0.,0.));
#525=DIRECTION('',(0.,0.,1.));
#526=DIRECTION('',(-1.,0.,0.));
#527=DIRECTION('',(0.,0.,1.));
#528=DIRECTION('',(1.,0.,0.));
#529=DIRECTION('',(0.,0.,-1.));
#530=DIRECTION('',(1.,0.,0.));
#531=DIRECTION('',(0.,0.,-1.));
#532=DIRECTION('',(1.,0.,0.));
#533=DIRECTION('',(0.,0.,1.));
#534=DIRECTION('',(-1.,0.,0.));
#535=DIRECTION('',(0.,0.,1.));
#536=DIRECTION('',(-1.,0.,0.));
#537=DIRECTION('',(0.,0.,1.));
#538=DIRECTION('',(1.,0.,0.));
#539=DIRECTION('',(0.,0.,-1.));
#540=DIRECTION('',(1.,0.,0.));
#541=DIRECTION('',(0.,0.,-1.));
#542=DIRECTION('',(1.,0.,0.));
#543=DIRECTION('',(0.,0.,1.));
#544=DIRECTION('',(-1.,0.,0.));
#545=DIRECTION('',(0.,0.,1.));
#546=DIRECTION('',(1.,0.,0.));
#547=DIRECTION('',(0.,0.,-1.));
#548=DIRECTION('',(-1.,0.,0.));
#549=DIRECTION('',(0.,0.,1.));
#550=DIRECTION('',(1.,0.,0.));
#551=DIRECTION('',(0.,0.,-1.));
#552=DIRECTION('',(1.,0.,0.));
#553=DIRECTION('',(0.,0.,-1.));
#554=DIRECTION('',(-1.,0.,0.));
#555=DIRECTION('',(0.,0.,-1.));
#556=DIRECTION('',(1.,0.,0.));
#557=DIRECTION('',(0.,0.,-1.));
#558=DIRECTION('',(-1.,0.,0.));
#559=DIRECTION('',(0.,0.,-1.));
#560=DIRECTION('',(1.,0.,0.));
#561=DIRECTION('',(0.,0.,-1.));
#562=DIRECTION('',(1.,0.,0.));
#563=DIRECTION('',(0.,0.,-1.));
#564=DIRECTION('',(1.,0.,0.));
#565=DIRECTION('',(0.,0.,-1.));
#566=DIRECTION('',(-1.,0.,0.));
#567=DIRECTION('',(-4.78662304285298E-017,0.,1.));
#568=DIRECTION('',(-1.,0.,0.));
#569=DIRECTION('',(-1.08096733108068E-018,0.,1.));
#570=DIRECTION('',(1.,0.,0.));
#571=DIRECTION('',(8.04681299891585E-017,0.,-1.));
#572=DIRECTION('',(-1.,0.,0.));
#573=DIRECTION('',(6.77791834325492E-018,0.,1.));
#574=DIRECTION('',(-1.,0.,0.));
#575=DIRECTION('',(1.01967581247718E-017,0.,1.));
#576=DIRECTION('',(-1.,0.,0.));
#577=DIRECTION('',(-2.72180197260396E-017,0.,1.));
#578=DIRECTION('',(1.,0.,0.));
#579=DIRECTION('',(-4.76198601248535E-017,0.,-1.));
#580=DIRECTION('',(-1.,0.,0.));
#581=DIRECTION('',(-2.04175192111438E-017,0.,1.));
#582=DIRECTION('',(-1.,0.,0.));
#583=DIRECTION('',(-5.49153200091585E-017,0.,1.));
#584=DIRECTION('',(-1.,0.,0.));
#585=DIRECTION('',(-4.11396871773156E-017,0.,1.));
#586=CARTESIAN_POINT('',(0.,0.,0.));
#587=CARTESIAN_POINT('',(67.,0.,0.));
#588=CARTESIAN_POINT('',(67.,0.,10.85));
#589=CARTESIAN_POINT('',(67.,11.1,0.));
#590=CARTESIAN_POINT('',(66.75,0.,0.));
#591=CARTESIAN_POINT('',(66.75,0.,11.1));
#592=CARTESIAN_POINT('',(63.9,0.,0.));
#593=CARTESIAN_POINT('',(63.9,0.,-11.1));
#594=CARTESIAN_POINT('',(0.,0.,0.));
#595=CARTESIAN_POINT('',(63.9,0.,0.));
#596=CARTESIAN_POINT('',(63.9,0.,12.));
#597=CARTESIAN_POINT('',(63.9,12.75,0.));
#598=CARTESIAN_POINT('',(63.15,0.,0.));
#599=CARTESIAN_POINT('',(63.15,0.,12.75));
#600=CARTESIAN_POINT('',(60.5,0.,0.));
#601=CARTESIAN_POINT('',(60.5,0.,-12.75));
#602=CARTESIAN_POINT('',(0.,0.,0.));
#603=CARTESIAN_POINT('',(60.5,0.,0.));
#604=CARTESIAN_POINT('',(60.5,0.,-12.25));
#605=CARTESIAN_POINT('',(60.5,12.25,0.));
#606=CARTESIAN_POINT('',(59.9,0.,0.));
#607=CARTESIAN_POINT('',(59.9,0.,-12.25));
#608=CARTESIAN_POINT('',(0.,0.,0.));
#609=CARTESIAN_POINT('',(59.9,0.,0.));
#610=CARTESIAN_POINT('',(59.9,0.,14.75));
#611=CARTESIAN_POINT('',(59.9,15.,0.));
#612=CARTESIAN_POINT('',(59.65,0.,0.));
#613=CARTESIAN_POINT('',(59.65,0.,19.55));
#614=CARTESIAN_POINT('',(59.65,0.,0.));
#615=CARTESIAN_POINT('',(59.65,0.,-15.));
#616=CARTESIAN_POINT('',(59.65,19.8,0.));
#617=CARTESIAN_POINT('',(59.4,0.,0.));
#618=CARTESIAN_POINT('',(59.4,0.,19.8));
#619=CARTESIAN_POINT('',(54.3,0.,0.));
#620=CARTESIAN_POINT('',(54.3,0.,-19.8));
#621=CARTESIAN_POINT('',(0.,0.,0.));
#622=CARTESIAN_POINT('',(54.,0.,0.));
#623=CARTESIAN_POINT('',(54.,0.,-19.5));
#624=CARTESIAN_POINT('',(54.,0.,0.));
#625=CARTESIAN_POINT('',(53.5,0.,0.));
#626=CARTESIAN_POINT('',(53.5,0.,-20.));
#627=CARTESIAN_POINT('',(53.5,0.,0.));
#628=CARTESIAN_POINT('',(43.75,0.,0.));
#629=CARTESIAN_POINT('',(43.75,0.,-20.));
#630=CARTESIAN_POINT('',(0.,0.,0.));
#631=CARTESIAN_POINT('',(43.5,0.,0.));
#632=CARTESIAN_POINT('',(43.5,0.,-19.75));
#633=CARTESIAN_POINT('',(43.5,0.,0.));
#634=CARTESIAN_POINT('',(43.5,0.,-18.75));
#635=CARTESIAN_POINT('',(43.5,18.75,0.));
#636=CARTESIAN_POINT('',(35.5,0.,0.));
#637=CARTESIAN_POINT('',(35.5,0.,-18.75));
#638=CARTESIAN_POINT('',(0.,0.,0.));
#639=CARTESIAN_POINT('',(35.5,0.,0.));
#640=CARTESIAN_POINT('',(35.5,0.,19.75));
#641=CARTESIAN_POINT('',(35.5,20.,0.));
#642=CARTESIAN_POINT('',(35.25,0.,0.));
#643=CARTESIAN_POINT('',(35.25,0.,20.));
#644=CARTESIAN_POINT('',(11.,0.,0.));
#645=CARTESIAN_POINT('',(11.,0.,-20.));
#646=CARTESIAN_POINT('',(0.,0.,0.));
#647=CARTESIAN_POINT('',(11.,0.,0.));
#648=CARTESIAN_POINT('',(11.,0.,20.75));
#649=CARTESIAN_POINT('',(11.,21.,0.));
#650=CARTESIAN_POINT('',(10.75,0.,0.));
#651=CARTESIAN_POINT('',(10.75,0.,21.));
#652=CARTESIAN_POINT('',(8.,0.,0.));
#653=CARTESIAN_POINT('',(8.,0.,-21.));
#654=CARTESIAN_POINT('',(0.,0.,0.));
#655=CARTESIAN_POINT('',(8.,0.,0.));
#656=CARTESIAN_POINT('',(8.,0.,23.75));
#657=CARTESIAN_POINT('',(8.,24.,0.));
#658=CARTESIAN_POINT('',(0.250000000000001,0.,0.));
#659=CARTESIAN_POINT('',(0.250000000000001,0.,-24.));
#660=CARTESIAN_POINT('',(7.75,0.,0.));
#661=CARTESIAN_POINT('',(7.75,0.,24.));
#662=CARTESIAN_POINT('',(0.,0.,0.));
#663=CARTESIAN_POINT('',(1.10501885419723E-015,0.,0.));
#664=CARTESIAN_POINT('',(1.10501885419723E-015,0.,-22.25));
#665=CARTESIAN_POINT('',(1.10501885419723E-015,0.,0.));
#666=CARTESIAN_POINT('',(1.10501885419723E-015,0.,-23.75));
#667=CARTESIAN_POINT('',(1.10501885419723E-015,22.,0.));
#668=CARTESIAN_POINT('',(0.250000000000001,0.,0.));
#669=CARTESIAN_POINT('',(0.250000000000001,0.,-22.));
#670=CARTESIAN_POINT('',(3.,0.,0.));
#671=CARTESIAN_POINT('',(3.,0.,-22.));
#672=CARTESIAN_POINT('',(0.,0.,0.));
#673=CARTESIAN_POINT('',(3.,0.,0.));
#674=CARTESIAN_POINT('',(59.9,0.,0.));
#675=CARTESIAN_POINT('',(1.10501885419723E-015,0.,0.));
#676=CARTESIAN_POINT('',(0.250000000000001,0.,0.));
#677=CARTESIAN_POINT('',(8.,0.,0.));
#678=CARTESIAN_POINT('',(11.,0.,0.));
#679=CARTESIAN_POINT('',(35.5,0.,0.));
#680=CARTESIAN_POINT('',(43.75,0.,0.));
#681=CARTESIAN_POINT('',(59.65,0.,0.));
#682=CARTESIAN_POINT('',(67.,0.,0.));
#683=CARTESIAN_POINT('',(63.9,0.,0.));
#684=MECHANICAL_DESIGN_GEOMETRIC_PRESENTATION_REPRESENTATION('',(#24),#685);
#685=(
GEOMETRIC_REPRESENTATION_CONTEXT(3)
GLOBAL_UNCERTAINTY_ASSIGNED_CONTEXT((#686))
GLOBAL_UNIT_ASSIGNED_CONTEXT((#692,#688,#687))
REPRESENTATION_CONTEXT('FL-CC0614A-2M_spec','TOP_LEVEL_ASSEMBLY_PART')
);
#686=UNCERTAINTY_MEASURE_WITH_UNIT(LENGTH_MEASURE(2.E-005),#692,
'DISTANCE_ACCURACY_VALUE','Maximum Tolerance applied to model');
#687=(
NAMED_UNIT(*)
SI_UNIT($,.STERADIAN.)
SOLID_ANGLE_UNIT()
);
#688=(
CONVERSION_BASED_UNIT('DEGREE',#690)
NAMED_UNIT(#689)
PLANE_ANGLE_UNIT()
);
#689=DIMENSIONAL_EXPONENTS(0.,0.,0.,0.,0.,0.,0.);
#690=PLANE_ANGLE_MEASURE_WITH_UNIT(PLANE_ANGLE_MEASURE(0.0174532925),#691);
#691=(
NAMED_UNIT(*)
PLANE_ANGLE_UNIT()
SI_UNIT($,.RADIAN.)
);
#692=(
LENGTH_UNIT()
NAMED_UNIT(*)
SI_UNIT(.MILLI.,.METRE.)
);
ENDSEC;
END-ISO-10303-21;
