ISO-10303-21;
HEADER;
/* Generated by software containing ST-Developer
 * from STEP Tools, Inc. (www.steptools.com) 
 */
/* OPTION: using custom schema-name function */

FILE_DESCRIPTION(
/* description */ (''),
/* implementation_level */ '2;1');

FILE_NAME(
/* name */ 'FL-CC1614A-2M_spec.stp',
/* time_stamp */ '2014-05-09T11:06:03+02:00',
/* author */ (''),
/* organization */ (''),
/* preprocessor_version */ 'ST-DEVELOPER v15',
/* originating_system */ 'SIEMENS PLM Software NX 8.5',
/* authorisation */ '');

FILE_SCHEMA (('AUTOMOTIVE_DESIGN { 1 0 10303 214 3 1 1 1 }'));
ENDSEC;

DATA;
#10=SHAPE_REPRESENTATION_RELATIONSHIP('None',
'relationship between FL-CC1614A-2M_spec-None and FL-CC1614A-2M_spec-N
one',#22,#11);
#11=ADVANCED_BREP_SHAPE_REPRESENTATION('FL-CC1614A-2M_spec-None',(#32),
#625);
#12=SHAPE_DEFINITION_REPRESENTATION(#13,#22);
#13=PRODUCT_DEFINITION_SHAPE('','',#14);
#14=PRODUCT_DEFINITION(' ','',#16,#15);
#15=PRODUCT_DEFINITION_CONTEXT('part definition',#21,'design');
#16=PRODUCT_DEFINITION_FORMATION_WITH_SPECIFIED_SOURCE(' ',' ',#18,
 .NOT_KNOWN.);
#17=PRODUCT_RELATED_PRODUCT_CATEGORY('part','',(#18));
#18=PRODUCT('FL-CC1614A-2M_spec','FL-CC1614A-2M_spec',' ',(#19));
#19=PRODUCT_CONTEXT(' ',#21,'mechanical');
#20=APPLICATION_PROTOCOL_DEFINITION('international standard',
'automotive_design',2010,#21);
#21=APPLICATION_CONTEXT(
'core data for automotive mechanical design processes');
#22=SHAPE_REPRESENTATION('FL-CC1614A-2M_spec-None',(#355),#625);
#23=PRESENTATION_LAYER_ASSIGNMENT('1','Layer 1',(#32));
#24=STYLED_ITEM('',(#25),#32);
#25=PRESENTATION_STYLE_ASSIGNMENT((#26));
#26=SURFACE_STYLE_USAGE(.BOTH.,#27);
#27=SURFACE_SIDE_STYLE('',(#28));
#28=SURFACE_STYLE_FILL_AREA(#29);
#29=FILL_AREA_STYLE('',(#30));
#30=FILL_AREA_STYLE_COLOUR('',#31);
#31=COLOUR_RGB('Medium Steel',0.596063172350652,0.666666666666667,0.686259250782025);
#32=MANIFOLD_SOLID_BREP('',#33);
#33=CLOSED_SHELL('',(#112,#113,#114,#115,#116,#117,#118,#119,#120,#121,
#122,#123,#124,#125,#126,#127,#128,#129,#130,#131,#132,#133,#134,#135,#136,
#137,#138,#139,#140,#141));
#34=CONICAL_SURFACE('',#378,14.2,45.);
#35=CONICAL_SURFACE('',#380,14.75,44.9999999999999);
#36=CONICAL_SURFACE('',#405,9.6,45.);
#37=CONICAL_SURFACE('',#406,9.85,45.);
#38=CONICAL_SURFACE('',#407,14.5,45.);
#39=CONICAL_SURFACE('',#408,14.75,45.);
#40=CONICAL_SURFACE('',#409,14.75,45.);
#41=CONICAL_SURFACE('',#410,13.5,45.);
#42=CONICAL_SURFACE('',#411,14.25,45.);
#43=CONICAL_SURFACE('',#412,13.75,45.);
#44=CONICAL_SURFACE('',#413,12.75,45.);
#45=CONICAL_SURFACE('',#414,12.,45.);
#46=CYLINDRICAL_SURFACE('',#360,9.85);
#47=CYLINDRICAL_SURFACE('',#363,9.6);
#48=CYLINDRICAL_SURFACE('',#368,12.75);
#49=CYLINDRICAL_SURFACE('',#371,12.25);
#50=CYLINDRICAL_SURFACE('',#376,14.5);
#51=CYLINDRICAL_SURFACE('',#382,14.75);
#52=CYLINDRICAL_SURFACE('',#387,14.);
#53=CYLINDRICAL_SURFACE('',#392,14.75);
#54=CYLINDRICAL_SURFACE('',#397,14.25);
#55=CYLINDRICAL_SURFACE('',#403,13.25);
#56=FACE_BOUND('',#153,.T.);
#57=FACE_BOUND('',#154,.T.);
#58=FACE_BOUND('',#155,.T.);
#59=FACE_BOUND('',#156,.T.);
#60=FACE_BOUND('',#157,.T.);
#61=FACE_BOUND('',#158,.T.);
#62=FACE_BOUND('',#159,.T.);
#63=FACE_BOUND('',#160,.T.);
#64=FACE_BOUND('',#161,.T.);
#65=FACE_BOUND('',#162,.T.);
#66=FACE_BOUND('',#163,.T.);
#67=FACE_BOUND('',#164,.T.);
#68=FACE_BOUND('',#165,.T.);
#69=FACE_BOUND('',#166,.T.);
#70=FACE_BOUND('',#167,.T.);
#71=FACE_BOUND('',#168,.T.);
#72=FACE_BOUND('',#169,.T.);
#73=FACE_BOUND('',#170,.T.);
#74=FACE_BOUND('',#171,.T.);
#75=FACE_BOUND('',#172,.T.);
#76=FACE_BOUND('',#173,.T.);
#77=FACE_BOUND('',#174,.T.);
#78=FACE_BOUND('',#175,.T.);
#79=FACE_BOUND('',#176,.T.);
#80=FACE_BOUND('',#177,.T.);
#81=FACE_BOUND('',#178,.T.);
#82=FACE_BOUND('',#179,.T.);
#83=FACE_BOUND('',#180,.T.);
#84=FACE_BOUND('',#181,.T.);
#85=FACE_BOUND('',#182,.T.);
#86=FACE_BOUND('',#183,.T.);
#87=FACE_BOUND('',#184,.T.);
#88=FACE_BOUND('',#185,.T.);
#89=FACE_BOUND('',#186,.T.);
#90=FACE_BOUND('',#187,.T.);
#91=FACE_BOUND('',#188,.T.);
#92=FACE_BOUND('',#190,.T.);
#93=FACE_BOUND('',#191,.T.);
#94=FACE_BOUND('',#192,.T.);
#95=FACE_BOUND('',#193,.T.);
#96=FACE_BOUND('',#194,.T.);
#97=FACE_BOUND('',#195,.T.);
#98=FACE_BOUND('',#196,.T.);
#99=FACE_BOUND('',#197,.T.);
#100=FACE_BOUND('',#198,.T.);
#101=FACE_BOUND('',#199,.T.);
#102=FACE_BOUND('',#200,.T.);
#103=FACE_BOUND('',#201,.T.);
#104=FACE_BOUND('',#202,.T.);
#105=FACE_BOUND('',#203,.T.);
#106=FACE_BOUND('',#204,.T.);
#107=FACE_BOUND('',#205,.T.);
#108=FACE_BOUND('',#206,.T.);
#109=FACE_BOUND('',#207,.T.);
#110=FACE_BOUND('',#208,.T.);
#111=FACE_BOUND('',#209,.T.);
#112=ADVANCED_FACE('',(#150),#142,.F.);
#113=ADVANCED_FACE('',(#56,#57),#46,.T.);
#114=ADVANCED_FACE('',(#58,#59),#47,.T.);
#115=ADVANCED_FACE('',(#60,#61),#143,.F.);
#116=ADVANCED_FACE('',(#62,#63),#48,.T.);
#117=ADVANCED_FACE('',(#64,#65),#49,.T.);
#118=ADVANCED_FACE('',(#66,#67),#144,.F.);
#119=ADVANCED_FACE('',(#68,#69),#50,.T.);
#120=ADVANCED_FACE('',(#70,#71),#34,.T.);
#121=ADVANCED_FACE('',(#72,#73),#35,.T.);
#122=ADVANCED_FACE('',(#74,#75),#51,.T.);
#123=ADVANCED_FACE('',(#76,#77),#145,.F.);
#124=ADVANCED_FACE('',(#78,#79),#52,.T.);
#125=ADVANCED_FACE('',(#80,#81),#146,.F.);
#126=ADVANCED_FACE('',(#82,#83),#53,.T.);
#127=ADVANCED_FACE('',(#84,#85),#147,.F.);
#128=ADVANCED_FACE('',(#86,#87),#54,.T.);
#129=ADVANCED_FACE('',(#88,#89),#148,.F.);
#130=ADVANCED_FACE('',(#90,#91),#55,.F.);
#131=ADVANCED_FACE('',(#151),#149,.F.);
#132=ADVANCED_FACE('',(#92,#93),#36,.T.);
#133=ADVANCED_FACE('',(#94,#95),#37,.T.);
#134=ADVANCED_FACE('',(#96,#97),#38,.T.);
#135=ADVANCED_FACE('',(#98,#99),#39,.T.);
#136=ADVANCED_FACE('',(#100,#101),#40,.T.);
#137=ADVANCED_FACE('',(#102,#103),#41,.F.);
#138=ADVANCED_FACE('',(#104,#105),#42,.T.);
#139=ADVANCED_FACE('',(#106,#107),#43,.T.);
#140=ADVANCED_FACE('',(#108,#109),#44,.T.);
#141=ADVANCED_FACE('',(#110,#111),#45,.T.);
#142=PLANE('',#357);
#143=PLANE('',#365);
#144=PLANE('',#373);
#145=PLANE('',#385);
#146=PLANE('',#389);
#147=PLANE('',#395);
#148=PLANE('',#400);
#149=PLANE('',#404);
#150=FACE_OUTER_BOUND('',#152,.T.);
#151=FACE_OUTER_BOUND('',#189,.T.);
#152=EDGE_LOOP('',(#210));
#153=EDGE_LOOP('',(#211));
#154=EDGE_LOOP('',(#212));
#155=EDGE_LOOP('',(#213));
#156=EDGE_LOOP('',(#214));
#157=EDGE_LOOP('',(#215));
#158=EDGE_LOOP('',(#216));
#159=EDGE_LOOP('',(#217));
#160=EDGE_LOOP('',(#218));
#161=EDGE_LOOP('',(#219));
#162=EDGE_LOOP('',(#220));
#163=EDGE_LOOP('',(#221));
#164=EDGE_LOOP('',(#222));
#165=EDGE_LOOP('',(#223));
#166=EDGE_LOOP('',(#224));
#167=EDGE_LOOP('',(#225));
#168=EDGE_LOOP('',(#226));
#169=EDGE_LOOP('',(#227));
#170=EDGE_LOOP('',(#228));
#171=EDGE_LOOP('',(#229));
#172=EDGE_LOOP('',(#230));
#173=EDGE_LOOP('',(#231));
#174=EDGE_LOOP('',(#232));
#175=EDGE_LOOP('',(#233));
#176=EDGE_LOOP('',(#234));
#177=EDGE_LOOP('',(#235));
#178=EDGE_LOOP('',(#236));
#179=EDGE_LOOP('',(#237));
#180=EDGE_LOOP('',(#238));
#181=EDGE_LOOP('',(#239));
#182=EDGE_LOOP('',(#240));
#183=EDGE_LOOP('',(#241));
#184=EDGE_LOOP('',(#242));
#185=EDGE_LOOP('',(#243));
#186=EDGE_LOOP('',(#244));
#187=EDGE_LOOP('',(#245));
#188=EDGE_LOOP('',(#246));
#189=EDGE_LOOP('',(#247));
#190=EDGE_LOOP('',(#248));
#191=EDGE_LOOP('',(#249));
#192=EDGE_LOOP('',(#250));
#193=EDGE_LOOP('',(#251));
#194=EDGE_LOOP('',(#252));
#195=EDGE_LOOP('',(#253));
#196=EDGE_LOOP('',(#254));
#197=EDGE_LOOP('',(#255));
#198=EDGE_LOOP('',(#256));
#199=EDGE_LOOP('',(#257));
#200=EDGE_LOOP('',(#258));
#201=EDGE_LOOP('',(#259));
#202=EDGE_LOOP('',(#260));
#203=EDGE_LOOP('',(#261));
#204=EDGE_LOOP('',(#262));
#205=EDGE_LOOP('',(#263));
#206=EDGE_LOOP('',(#264));
#207=EDGE_LOOP('',(#265));
#208=EDGE_LOOP('',(#266));
#209=EDGE_LOOP('',(#267));
#210=ORIENTED_EDGE('',*,*,#297,.T.);
#211=ORIENTED_EDGE('',*,*,#298,.T.);
#212=ORIENTED_EDGE('',*,*,#299,.T.);
#213=ORIENTED_EDGE('',*,*,#300,.F.);
#214=ORIENTED_EDGE('',*,*,#301,.T.);
#215=ORIENTED_EDGE('',*,*,#302,.T.);
#216=ORIENTED_EDGE('',*,*,#301,.F.);
#217=ORIENTED_EDGE('',*,*,#303,.T.);
#218=ORIENTED_EDGE('',*,*,#304,.T.);
#219=ORIENTED_EDGE('',*,*,#305,.T.);
#220=ORIENTED_EDGE('',*,*,#306,.T.);
#221=ORIENTED_EDGE('',*,*,#307,.T.);
#222=ORIENTED_EDGE('',*,*,#306,.F.);
#223=ORIENTED_EDGE('',*,*,#308,.T.);
#224=ORIENTED_EDGE('',*,*,#309,.T.);
#225=ORIENTED_EDGE('',*,*,#309,.F.);
#226=ORIENTED_EDGE('',*,*,#310,.T.);
#227=ORIENTED_EDGE('',*,*,#310,.F.);
#228=ORIENTED_EDGE('',*,*,#311,.T.);
#229=ORIENTED_EDGE('',*,*,#312,.T.);
#230=ORIENTED_EDGE('',*,*,#311,.F.);
#231=ORIENTED_EDGE('',*,*,#313,.T.);
#232=ORIENTED_EDGE('',*,*,#314,.T.);
#233=ORIENTED_EDGE('',*,*,#314,.F.);
#234=ORIENTED_EDGE('',*,*,#315,.T.);
#235=ORIENTED_EDGE('',*,*,#316,.T.);
#236=ORIENTED_EDGE('',*,*,#315,.F.);
#237=ORIENTED_EDGE('',*,*,#317,.T.);
#238=ORIENTED_EDGE('',*,*,#318,.T.);
#239=ORIENTED_EDGE('',*,*,#319,.T.);
#240=ORIENTED_EDGE('',*,*,#320,.T.);
#241=ORIENTED_EDGE('',*,*,#321,.T.);
#242=ORIENTED_EDGE('',*,*,#320,.F.);
#243=ORIENTED_EDGE('',*,*,#322,.T.);
#244=ORIENTED_EDGE('',*,*,#323,.T.);
#245=ORIENTED_EDGE('',*,*,#324,.T.);
#246=ORIENTED_EDGE('',*,*,#325,.T.);
#247=ORIENTED_EDGE('',*,*,#325,.F.);
#248=ORIENTED_EDGE('',*,*,#298,.F.);
#249=ORIENTED_EDGE('',*,*,#297,.F.);
#250=ORIENTED_EDGE('',*,*,#300,.T.);
#251=ORIENTED_EDGE('',*,*,#299,.F.);
#252=ORIENTED_EDGE('',*,*,#317,.F.);
#253=ORIENTED_EDGE('',*,*,#316,.F.);
#254=ORIENTED_EDGE('',*,*,#313,.F.);
#255=ORIENTED_EDGE('',*,*,#312,.F.);
#256=ORIENTED_EDGE('',*,*,#319,.F.);
#257=ORIENTED_EDGE('',*,*,#318,.F.);
#258=ORIENTED_EDGE('',*,*,#324,.F.);
#259=ORIENTED_EDGE('',*,*,#322,.F.);
#260=ORIENTED_EDGE('',*,*,#323,.F.);
#261=ORIENTED_EDGE('',*,*,#321,.F.);
#262=ORIENTED_EDGE('',*,*,#308,.F.);
#263=ORIENTED_EDGE('',*,*,#307,.F.);
#264=ORIENTED_EDGE('',*,*,#305,.F.);
#265=ORIENTED_EDGE('',*,*,#303,.F.);
#266=ORIENTED_EDGE('',*,*,#304,.F.);
#267=ORIENTED_EDGE('',*,*,#302,.F.);
#268=VERTEX_POINT('',#537);
#269=VERTEX_POINT('',#540);
#270=VERTEX_POINT('',#542);
#271=VERTEX_POINT('',#545);
#272=VERTEX_POINT('',#547);
#273=VERTEX_POINT('',#550);
#274=VERTEX_POINT('',#553);
#275=VERTEX_POINT('',#555);
#276=VERTEX_POINT('',#558);
#277=VERTEX_POINT('',#560);
#278=VERTEX_POINT('',#563);
#279=VERTEX_POINT('',#566);
#280=VERTEX_POINT('',#568);
#281=VERTEX_POINT('',#571);
#282=VERTEX_POINT('',#574);
#283=VERTEX_POINT('',#577);
#284=VERTEX_POINT('',#580);
#285=VERTEX_POINT('',#582);
#286=VERTEX_POINT('',#585);
#287=VERTEX_POINT('',#588);
#288=VERTEX_POINT('',#591);
#289=VERTEX_POINT('',#593);
#290=VERTEX_POINT('',#596);
#291=VERTEX_POINT('',#598);
#292=VERTEX_POINT('',#601);
#293=VERTEX_POINT('',#604);
#294=VERTEX_POINT('',#606);
#295=VERTEX_POINT('',#609);
#296=VERTEX_POINT('',#611);
#297=EDGE_CURVE('',#268,#268,#326,.T.);
#298=EDGE_CURVE('',#269,#269,#327,.T.);
#299=EDGE_CURVE('',#270,#270,#328,.T.);
#300=EDGE_CURVE('',#271,#271,#329,.T.);
#301=EDGE_CURVE('',#272,#272,#330,.T.);
#302=EDGE_CURVE('',#273,#273,#331,.T.);
#303=EDGE_CURVE('',#274,#274,#332,.T.);
#304=EDGE_CURVE('',#275,#275,#333,.T.);
#305=EDGE_CURVE('',#276,#276,#334,.T.);
#306=EDGE_CURVE('',#277,#277,#335,.T.);
#307=EDGE_CURVE('',#278,#278,#336,.T.);
#308=EDGE_CURVE('',#279,#279,#337,.T.);
#309=EDGE_CURVE('',#280,#280,#338,.T.);
#310=EDGE_CURVE('',#281,#281,#339,.T.);
#311=EDGE_CURVE('',#282,#282,#340,.T.);
#312=EDGE_CURVE('',#283,#283,#341,.T.);
#313=EDGE_CURVE('',#284,#284,#342,.T.);
#314=EDGE_CURVE('',#285,#285,#343,.T.);
#315=EDGE_CURVE('',#286,#286,#344,.T.);
#316=EDGE_CURVE('',#287,#287,#345,.T.);
#317=EDGE_CURVE('',#288,#288,#346,.T.);
#318=EDGE_CURVE('',#289,#289,#347,.T.);
#319=EDGE_CURVE('',#290,#290,#348,.T.);
#320=EDGE_CURVE('',#291,#291,#349,.T.);
#321=EDGE_CURVE('',#292,#292,#350,.T.);
#322=EDGE_CURVE('',#293,#293,#351,.T.);
#323=EDGE_CURVE('',#294,#294,#352,.T.);
#324=EDGE_CURVE('',#295,#295,#353,.T.);
#325=EDGE_CURVE('',#296,#296,#354,.T.);
#326=CIRCLE('',#356,9.6);
#327=CIRCLE('',#358,9.85);
#328=CIRCLE('',#359,9.85);
#329=CIRCLE('',#361,9.6);
#330=CIRCLE('',#362,9.6);
#331=CIRCLE('',#364,12.);
#332=CIRCLE('',#366,12.75);
#333=CIRCLE('',#367,12.75);
#334=CIRCLE('',#369,12.25);
#335=CIRCLE('',#370,12.25);
#336=CIRCLE('',#372,13.75);
#337=CIRCLE('',#374,14.5);
#338=CIRCLE('',#375,14.5);
#339=CIRCLE('',#377,14.2);
#340=CIRCLE('',#379,14.75);
#341=CIRCLE('',#381,14.75);
#342=CIRCLE('',#383,14.5);
#343=CIRCLE('',#384,14.);
#344=CIRCLE('',#386,14.);
#345=CIRCLE('',#388,14.5);
#346=CIRCLE('',#390,14.75);
#347=CIRCLE('',#391,14.75);
#348=CIRCLE('',#393,14.5);
#349=CIRCLE('',#394,14.25);
#350=CIRCLE('',#396,14.25);
#351=CIRCLE('',#398,13.5);
#352=CIRCLE('',#399,14.);
#353=CIRCLE('',#401,13.25);
#354=CIRCLE('',#402,13.25);
#355=AXIS2_PLACEMENT_3D('',#535,#415,#416);
#356=AXIS2_PLACEMENT_3D('',#536,#417,#418);
#357=AXIS2_PLACEMENT_3D('',#538,#419,#420);
#358=AXIS2_PLACEMENT_3D('',#539,#421,#422);
#359=AXIS2_PLACEMENT_3D('',#541,#423,#424);
#360=AXIS2_PLACEMENT_3D('',#543,#425,#426);
#361=AXIS2_PLACEMENT_3D('',#544,#427,#428);
#362=AXIS2_PLACEMENT_3D('',#546,#429,#430);
#363=AXIS2_PLACEMENT_3D('',#548,#431,#432);
#364=AXIS2_PLACEMENT_3D('',#549,#433,#434);
#365=AXIS2_PLACEMENT_3D('',#551,#435,#436);
#366=AXIS2_PLACEMENT_3D('',#552,#437,#438);
#367=AXIS2_PLACEMENT_3D('',#554,#439,#440);
#368=AXIS2_PLACEMENT_3D('',#556,#441,#442);
#369=AXIS2_PLACEMENT_3D('',#557,#443,#444);
#370=AXIS2_PLACEMENT_3D('',#559,#445,#446);
#371=AXIS2_PLACEMENT_3D('',#561,#447,#448);
#372=AXIS2_PLACEMENT_3D('',#562,#449,#450);
#373=AXIS2_PLACEMENT_3D('',#564,#451,#452);
#374=AXIS2_PLACEMENT_3D('',#565,#453,#454);
#375=AXIS2_PLACEMENT_3D('',#567,#455,#456);
#376=AXIS2_PLACEMENT_3D('',#569,#457,#458);
#377=AXIS2_PLACEMENT_3D('',#570,#459,#460);
#378=AXIS2_PLACEMENT_3D('',#572,#461,#462);
#379=AXIS2_PLACEMENT_3D('',#573,#463,#464);
#380=AXIS2_PLACEMENT_3D('',#575,#465,#466);
#381=AXIS2_PLACEMENT_3D('',#576,#467,#468);
#382=AXIS2_PLACEMENT_3D('',#578,#469,#470);
#383=AXIS2_PLACEMENT_3D('',#579,#471,#472);
#384=AXIS2_PLACEMENT_3D('',#581,#473,#474);
#385=AXIS2_PLACEMENT_3D('',#583,#475,#476);
#386=AXIS2_PLACEMENT_3D('',#584,#477,#478);
#387=AXIS2_PLACEMENT_3D('',#586,#479,#480);
#388=AXIS2_PLACEMENT_3D('',#587,#481,#482);
#389=AXIS2_PLACEMENT_3D('',#589,#483,#484);
#390=AXIS2_PLACEMENT_3D('',#590,#485,#486);
#391=AXIS2_PLACEMENT_3D('',#592,#487,#488);
#392=AXIS2_PLACEMENT_3D('',#594,#489,#490);
#393=AXIS2_PLACEMENT_3D('',#595,#491,#492);
#394=AXIS2_PLACEMENT_3D('',#597,#493,#494);
#395=AXIS2_PLACEMENT_3D('',#599,#495,#496);
#396=AXIS2_PLACEMENT_3D('',#600,#497,#498);
#397=AXIS2_PLACEMENT_3D('',#602,#499,#500);
#398=AXIS2_PLACEMENT_3D('',#603,#501,#502);
#399=AXIS2_PLACEMENT_3D('',#605,#503,#504);
#400=AXIS2_PLACEMENT_3D('',#607,#505,#506);
#401=AXIS2_PLACEMENT_3D('',#608,#507,#508);
#402=AXIS2_PLACEMENT_3D('',#610,#509,#510);
#403=AXIS2_PLACEMENT_3D('',#612,#511,#512);
#404=AXIS2_PLACEMENT_3D('',#613,#513,#514);
#405=AXIS2_PLACEMENT_3D('',#614,#515,#516);
#406=AXIS2_PLACEMENT_3D('',#615,#517,#518);
#407=AXIS2_PLACEMENT_3D('',#616,#519,#520);
#408=AXIS2_PLACEMENT_3D('',#617,#521,#522);
#409=AXIS2_PLACEMENT_3D('',#618,#523,#524);
#410=AXIS2_PLACEMENT_3D('',#619,#525,#526);
#411=AXIS2_PLACEMENT_3D('',#620,#527,#528);
#412=AXIS2_PLACEMENT_3D('',#621,#529,#530);
#413=AXIS2_PLACEMENT_3D('',#622,#531,#532);
#414=AXIS2_PLACEMENT_3D('',#623,#533,#534);
#415=DIRECTION('',(0.,0.,1.));
#416=DIRECTION('',(1.,0.,0.));
#417=DIRECTION('',(1.,0.,0.));
#418=DIRECTION('',(0.,0.,1.));
#419=DIRECTION('',(-1.,0.,0.));
#420=DIRECTION('',(0.,0.,1.));
#421=DIRECTION('',(-1.,0.,0.));
#422=DIRECTION('',(0.,0.,1.));
#423=DIRECTION('',(1.,0.,0.));
#424=DIRECTION('',(0.,0.,-1.));
#425=DIRECTION('',(1.,0.,0.));
#426=DIRECTION('',(0.,0.,-1.));
#427=DIRECTION('',(1.,0.,0.));
#428=DIRECTION('',(0.,0.,-1.));
#429=DIRECTION('',(1.,0.,0.));
#430=DIRECTION('',(0.,0.,-1.));
#431=DIRECTION('',(1.,0.,0.));
#432=DIRECTION('',(0.,0.,-1.));
#433=DIRECTION('',(1.,0.,0.));
#434=DIRECTION('',(0.,0.,1.));
#435=DIRECTION('',(-1.,0.,0.));
#436=DIRECTION('',(0.,0.,1.));
#437=DIRECTION('',(1.,0.,0.));
#438=DIRECTION('',(0.,0.,-1.));
#439=DIRECTION('',(-1.,0.,0.));
#440=DIRECTION('',(0.,0.,1.));
#441=DIRECTION('',(1.,0.,0.));
#442=DIRECTION('',(0.,0.,-1.));
#443=DIRECTION('',(-1.,0.,0.));
#444=DIRECTION('',(0.,0.,-1.));
#445=DIRECTION('',(1.,0.,0.));
#446=DIRECTION('',(0.,0.,-1.));
#447=DIRECTION('',(1.,0.,0.));
#448=DIRECTION('',(0.,0.,-1.));
#449=DIRECTION('',(1.,0.,0.));
#450=DIRECTION('',(0.,0.,1.));
#451=DIRECTION('',(-1.,0.,0.));
#452=DIRECTION('',(0.,0.,1.));
#453=DIRECTION('',(-1.,0.,0.));
#454=DIRECTION('',(0.,0.,1.));
#455=DIRECTION('',(1.,0.,0.));
#456=DIRECTION('',(0.,0.,-1.));
#457=DIRECTION('',(1.,0.,0.));
#458=DIRECTION('',(0.,0.,-1.));
#459=DIRECTION('',(1.,0.,0.));
#460=DIRECTION('',(0.,0.,-1.));
#461=DIRECTION('',(1.,0.,0.));
#462=DIRECTION('',(8.89426353291205E-017,0.,-1.));
#463=DIRECTION('',(1.,0.,0.));
#464=DIRECTION('',(0.,0.,-1.));
#465=DIRECTION('',(-1.,0.,0.));
#466=DIRECTION('',(3.76091810509878E-017,0.,1.));
#467=DIRECTION('',(1.,0.,0.));
#468=DIRECTION('',(0.,0.,-1.));
#469=DIRECTION('',(1.,0.,0.));
#470=DIRECTION('',(0.,0.,-1.));
#471=DIRECTION('',(-1.,0.,0.));
#472=DIRECTION('',(0.,0.,-1.));
#473=DIRECTION('',(1.,0.,0.));
#474=DIRECTION('',(0.,0.,-1.));
#475=DIRECTION('',(1.,0.,0.));
#476=DIRECTION('',(0.,0.,-1.));
#477=DIRECTION('',(1.,0.,0.));
#478=DIRECTION('',(0.,0.,-1.));
#479=DIRECTION('',(1.,0.,0.));
#480=DIRECTION('',(0.,0.,-1.));
#481=DIRECTION('',(1.,0.,0.));
#482=DIRECTION('',(0.,0.,1.));
#483=DIRECTION('',(-1.,0.,0.));
#484=DIRECTION('',(0.,0.,1.));
#485=DIRECTION('',(-1.,0.,0.));
#486=DIRECTION('',(0.,0.,1.));
#487=DIRECTION('',(1.,0.,0.));
#488=DIRECTION('',(0.,0.,-1.));
#489=DIRECTION('',(1.,0.,0.));
#490=DIRECTION('',(0.,0.,-1.));
#491=DIRECTION('',(-1.,0.,0.));
#492=DIRECTION('',(0.,0.,-1.));
#493=DIRECTION('',(1.,0.,0.));
#494=DIRECTION('',(0.,0.,-1.));
#495=DIRECTION('',(1.,0.,0.));
#496=DIRECTION('',(0.,0.,-1.));
#497=DIRECTION('',(1.,0.,0.));
#498=DIRECTION('',(0.,0.,-1.));
#499=DIRECTION('',(1.,0.,0.));
#500=DIRECTION('',(0.,0.,-1.));
#501=DIRECTION('',(1.,0.,0.));
#502=DIRECTION('',(0.,0.,-1.));
#503=DIRECTION('',(-1.,0.,0.));
#504=DIRECTION('',(0.,0.,-1.));
#505=DIRECTION('',(1.,0.,0.));
#506=DIRECTION('',(0.,0.,-1.));
#507=DIRECTION('',(-1.,0.,0.));
#508=DIRECTION('',(0.,0.,-1.));
#509=DIRECTION('',(1.,0.,0.));
#510=DIRECTION('',(0.,0.,-1.));
#511=DIRECTION('',(1.,0.,0.));
#512=DIRECTION('',(0.,0.,-1.));
#513=DIRECTION('',(1.,0.,0.));
#514=DIRECTION('',(0.,0.,-1.));
#515=DIRECTION('',(-1.,0.,0.));
#516=DIRECTION('',(5.49833114414202E-017,0.,1.));
#517=DIRECTION('',(1.,0.,0.));
#518=DIRECTION('',(7.55833370728123E-017,0.,-1.));
#519=DIRECTION('',(-1.,0.,0.));
#520=DIRECTION('',(-2.39390129755301E-017,0.,1.));
#521=DIRECTION('',(1.,0.,0.));
#522=DIRECTION('',(-5.12852468877105E-017,0.,-1.));
#523=DIRECTION('',(1.,0.,0.));
#524=DIRECTION('',(-9.23134443978789E-017,0.,-1.));
#525=DIRECTION('',(-1.,0.,0.));
#526=DIRECTION('',(-6.01673561842488E-019,0.,1.));
#527=DIRECTION('',(1.,0.,0.));
#528=DIRECTION('',(8.17227075045765E-017,0.,-1.));
#529=DIRECTION('',(-1.,0.,0.));
#530=DIRECTION('',(0.,0.,1.));
#531=DIRECTION('',(1.,0.,0.));
#532=DIRECTION('',(-5.48122944766802E-017,0.,-1.));
#533=DIRECTION('',(-1.,0.,0.));
#534=DIRECTION('',(6.8566145295526E-018,0.,1.));
#535=CARTESIAN_POINT('',(0.,0.,0.));
#536=CARTESIAN_POINT('',(39.8,0.,0.));
#537=CARTESIAN_POINT('',(39.8,0.,9.6));
#538=CARTESIAN_POINT('',(39.8,9.85,0.));
#539=CARTESIAN_POINT('',(39.55,0.,0.));
#540=CARTESIAN_POINT('',(39.55,0.,9.85));
#541=CARTESIAN_POINT('',(36.55,0.,0.));
#542=CARTESIAN_POINT('',(36.55,0.,-9.85));
#543=CARTESIAN_POINT('',(0.,0.,0.));
#544=CARTESIAN_POINT('',(36.3,0.,0.));
#545=CARTESIAN_POINT('',(36.3,0.,-9.6));
#546=CARTESIAN_POINT('',(36.2,0.,0.));
#547=CARTESIAN_POINT('',(36.2,0.,-9.6));
#548=CARTESIAN_POINT('',(0.,0.,0.));
#549=CARTESIAN_POINT('',(36.2,0.,0.));
#550=CARTESIAN_POINT('',(36.2,0.,12.));
#551=CARTESIAN_POINT('',(36.2,12.75,0.));
#552=CARTESIAN_POINT('',(33.75,0.,0.));
#553=CARTESIAN_POINT('',(33.75,0.,-12.75));
#554=CARTESIAN_POINT('',(35.45,0.,0.));
#555=CARTESIAN_POINT('',(35.45,0.,12.75));
#556=CARTESIAN_POINT('',(0.,0.,0.));
#557=CARTESIAN_POINT('',(33.25,0.,0.));
#558=CARTESIAN_POINT('',(33.25,0.,-12.25));
#559=CARTESIAN_POINT('',(32.2,0.,0.));
#560=CARTESIAN_POINT('',(32.2,0.,-12.25));
#561=CARTESIAN_POINT('',(0.,0.,0.));
#562=CARTESIAN_POINT('',(32.2,0.,0.));
#563=CARTESIAN_POINT('',(32.2,0.,13.75));
#564=CARTESIAN_POINT('',(32.2,14.5,0.));
#565=CARTESIAN_POINT('',(31.45,0.,0.));
#566=CARTESIAN_POINT('',(31.45,0.,14.5));
#567=CARTESIAN_POINT('',(27.7,0.,0.));
#568=CARTESIAN_POINT('',(27.7,0.,-14.5));
#569=CARTESIAN_POINT('',(0.,0.,0.));
#570=CARTESIAN_POINT('',(27.4,0.,0.));
#571=CARTESIAN_POINT('',(27.4,0.,-14.2));
#572=CARTESIAN_POINT('',(27.4,0.,0.));
#573=CARTESIAN_POINT('',(26.85,0.,0.));
#574=CARTESIAN_POINT('',(26.85,0.,-14.75));
#575=CARTESIAN_POINT('',(26.85,0.,0.));
#576=CARTESIAN_POINT('',(20.6,0.,0.));
#577=CARTESIAN_POINT('',(20.6,0.,-14.75));
#578=CARTESIAN_POINT('',(0.,0.,0.));
#579=CARTESIAN_POINT('',(20.35,0.,0.));
#580=CARTESIAN_POINT('',(20.35,0.,-14.5));
#581=CARTESIAN_POINT('',(20.35,0.,0.));
#582=CARTESIAN_POINT('',(20.35,0.,-14.));
#583=CARTESIAN_POINT('',(20.35,14.,0.));
#584=CARTESIAN_POINT('',(17.35,0.,0.));
#585=CARTESIAN_POINT('',(17.35,0.,-14.));
#586=CARTESIAN_POINT('',(0.,0.,0.));
#587=CARTESIAN_POINT('',(17.35,0.,0.));
#588=CARTESIAN_POINT('',(17.35,0.,14.5));
#589=CARTESIAN_POINT('',(17.35,14.75,0.));
#590=CARTESIAN_POINT('',(17.1,0.,0.));
#591=CARTESIAN_POINT('',(17.1,0.,14.75));
#592=CARTESIAN_POINT('',(3.85,0.,0.));
#593=CARTESIAN_POINT('',(3.85,0.,-14.75));
#594=CARTESIAN_POINT('',(0.,0.,0.));
#595=CARTESIAN_POINT('',(3.6,0.,0.));
#596=CARTESIAN_POINT('',(3.6,0.,-14.5));
#597=CARTESIAN_POINT('',(3.6,0.,0.));
#598=CARTESIAN_POINT('',(3.6,0.,-14.25));
#599=CARTESIAN_POINT('',(3.6,14.25,0.));
#600=CARTESIAN_POINT('',(0.250000000000001,0.,0.));
#601=CARTESIAN_POINT('',(0.250000000000001,0.,-14.25));
#602=CARTESIAN_POINT('',(0.,0.,0.));
#603=CARTESIAN_POINT('',(6.09796154927362E-016,0.,0.));
#604=CARTESIAN_POINT('',(6.09796154927362E-016,0.,-13.5));
#605=CARTESIAN_POINT('',(6.09796154927362E-016,0.,0.));
#606=CARTESIAN_POINT('',(6.09796154927362E-016,0.,-14.));
#607=CARTESIAN_POINT('',(6.09796154927362E-016,13.25,0.));
#608=CARTESIAN_POINT('',(0.250000000000001,0.,0.));
#609=CARTESIAN_POINT('',(0.250000000000001,0.,-13.25));
#610=CARTESIAN_POINT('',(3.,0.,0.));
#611=CARTESIAN_POINT('',(3.,0.,-13.25));
#612=CARTESIAN_POINT('',(0.,0.,0.));
#613=CARTESIAN_POINT('',(3.,0.,0.));
#614=CARTESIAN_POINT('',(39.8,0.,0.));
#615=CARTESIAN_POINT('',(36.55,0.,0.));
#616=CARTESIAN_POINT('',(17.35,0.,0.));
#617=CARTESIAN_POINT('',(20.6,0.,0.));
#618=CARTESIAN_POINT('',(3.85,0.,0.));
#619=CARTESIAN_POINT('',(6.09796154927362E-016,0.,0.));
#620=CARTESIAN_POINT('',(0.250000000000001,0.,0.));
#621=CARTESIAN_POINT('',(32.2,0.,0.));
#622=CARTESIAN_POINT('',(33.75,0.,0.));
#623=CARTESIAN_POINT('',(36.2,0.,0.));
#624=MECHANICAL_DESIGN_GEOMETRIC_PRESENTATION_REPRESENTATION('',(#24),#625);
#625=(
GEOMETRIC_REPRESENTATION_CONTEXT(3)
GLOBAL_UNCERTAINTY_ASSIGNED_CONTEXT((#626))
GLOBAL_UNIT_ASSIGNED_CONTEXT((#632,#628,#627))
REPRESENTATION_CONTEXT('FL-CC1614A-2M_spec','TOP_LEVEL_ASSEMBLY_PART')
);
#626=UNCERTAINTY_MEASURE_WITH_UNIT(LENGTH_MEASURE(2.E-005),#632,
'DISTANCE_ACCURACY_VALUE','Maximum Tolerance applied to model');
#627=(
NAMED_UNIT(*)
SI_UNIT($,.STERADIAN.)
SOLID_ANGLE_UNIT()
);
#628=(
CONVERSION_BASED_UNIT('DEGREE',#630)
NAMED_UNIT(#629)
PLANE_ANGLE_UNIT()
);
#629=DIMENSIONAL_EXPONENTS(0.,0.,0.,0.,0.,0.,0.);
#630=PLANE_ANGLE_MEASURE_WITH_UNIT(PLANE_ANGLE_MEASURE(0.0174532925),#631);
#631=(
NAMED_UNIT(*)
PLANE_ANGLE_UNIT()
SI_UNIT($,.RADIAN.)
);
#632=(
LENGTH_UNIT()
NAMED_UNIT(*)
SI_UNIT(.MILLI.,.METRE.)
);
ENDSEC;
END-ISO-10303-21;
