ISO-10303-21;
HEADER;
/* Generated by software containing ST-Developer
 * from STEP Tools, Inc. (www.steptools.com) 
 */

FILE_DESCRIPTION(
/* description */ (''),
/* implementation_level */ '2;1');

FILE_NAME(
/* name */ 
'V:\\Produktentwicklung\\CAD\\Zubeh\X\F6r\\TechDok\\UV-Sperrfilter\\19
0.049.003.99_UV-Sperrfilter_M27x0,5\\3D-Modell\\Webseite\\UV-Sperrfilt
er_M27x0,5.stp',
/* time_stamp */ '2021-06-21T15:10:57+02:00',
/* author */ (''),
/* organization */ (''),
/* preprocessor_version */ 'ST-DEVELOPER v16.5',
/* originating_system */ 'Autodesk Inventor 2017',
/* authorisation */ '');

FILE_SCHEMA (('AUTOMOTIVE_DESIGN { 1 0 10303 214 3 1 1 }'));
ENDSEC;

DATA;
#10=MECHANICAL_DESIGN_GEOMETRIC_PRESENTATION_REPRESENTATION('',(#215,#216,
#219,#221,#218,#220,#217,#223,#222,#235,#236,#234,#227,#225,#226,#224,#228,
#233,#231,#229,#232,#230),#456);
#11=SHAPE_REPRESENTATION_RELATIONSHIP('SRR','None',#465,#12);
#12=ADVANCED_BREP_SHAPE_REPRESENTATION('',(#13),#455);
#13=MANIFOLD_SOLID_BREP('Volumenk\X\F6rper1',#258);
#14=TOROIDAL_SURFACE('',#285,13.8,0.5);
#15=CYLINDRICAL_SURFACE('',#271,11.5);
#16=CYLINDRICAL_SURFACE('',#276,12.4795);
#17=CYLINDRICAL_SURFACE('',#283,13.2295);
#18=CYLINDRICAL_SURFACE('',#287,14.3);
#19=CYLINDRICAL_SURFACE('',#291,13.5295);
#20=CYLINDRICAL_SURFACE('',#296,13.5);
#21=CYLINDRICAL_SURFACE('',#301,13.15);
#22=CYLINDRICAL_SURFACE('',#306,11.5);
#23=CONICAL_SURFACE('',#269,11.75,45.);
#24=CONICAL_SURFACE('',#278,13.3795,45.);
#25=CONICAL_SURFACE('',#293,13.35,45.);
#26=FACE_BOUND('',#67,.T.);
#27=FACE_BOUND('',#69,.T.);
#28=FACE_BOUND('',#71,.T.);
#29=FACE_BOUND('',#75,.T.);
#30=FACE_BOUND('',#77,.T.);
#31=FACE_BOUND('',#79,.T.);
#32=FACE_BOUND('',#81,.T.);
#33=FACE_BOUND('',#83,.T.);
#34=FACE_BOUND('',#85,.T.);
#35=FACE_BOUND('',#87,.T.);
#36=FACE_BOUND('',#89,.T.);
#37=FACE_BOUND('',#91,.T.);
#38=FACE_BOUND('',#93,.T.);
#39=FACE_BOUND('',#95,.T.);
#40=FACE_BOUND('',#97,.T.);
#41=FACE_BOUND('',#99,.T.);
#42=FACE_BOUND('',#101,.T.);
#43=FACE_BOUND('',#103,.T.);
#44=FACE_BOUND('',#105,.T.);
#45=FACE_OUTER_BOUND('',#66,.T.);
#46=FACE_OUTER_BOUND('',#68,.T.);
#47=FACE_OUTER_BOUND('',#70,.T.);
#48=FACE_OUTER_BOUND('',#72,.T.);
#49=FACE_OUTER_BOUND('',#73,.T.);
#50=FACE_OUTER_BOUND('',#74,.T.);
#51=FACE_OUTER_BOUND('',#76,.T.);
#52=FACE_OUTER_BOUND('',#78,.T.);
#53=FACE_OUTER_BOUND('',#80,.T.);
#54=FACE_OUTER_BOUND('',#82,.T.);
#55=FACE_OUTER_BOUND('',#84,.T.);
#56=FACE_OUTER_BOUND('',#86,.T.);
#57=FACE_OUTER_BOUND('',#88,.T.);
#58=FACE_OUTER_BOUND('',#90,.T.);
#59=FACE_OUTER_BOUND('',#92,.T.);
#60=FACE_OUTER_BOUND('',#94,.T.);
#61=FACE_OUTER_BOUND('',#96,.T.);
#62=FACE_OUTER_BOUND('',#98,.T.);
#63=FACE_OUTER_BOUND('',#100,.T.);
#64=FACE_OUTER_BOUND('',#102,.T.);
#65=FACE_OUTER_BOUND('',#104,.T.);
#66=EDGE_LOOP('',(#166));
#67=EDGE_LOOP('',(#167));
#68=EDGE_LOOP('',(#168));
#69=EDGE_LOOP('',(#169));
#70=EDGE_LOOP('',(#170));
#71=EDGE_LOOP('',(#171));
#72=EDGE_LOOP('',(#172));
#73=EDGE_LOOP('',(#173));
#74=EDGE_LOOP('',(#174));
#75=EDGE_LOOP('',(#175));
#76=EDGE_LOOP('',(#176));
#77=EDGE_LOOP('',(#177));
#78=EDGE_LOOP('',(#178));
#79=EDGE_LOOP('',(#179));
#80=EDGE_LOOP('',(#180));
#81=EDGE_LOOP('',(#181));
#82=EDGE_LOOP('',(#182));
#83=EDGE_LOOP('',(#183));
#84=EDGE_LOOP('',(#184));
#85=EDGE_LOOP('',(#185));
#86=EDGE_LOOP('',(#186));
#87=EDGE_LOOP('',(#187));
#88=EDGE_LOOP('',(#188));
#89=EDGE_LOOP('',(#189));
#90=EDGE_LOOP('',(#190));
#91=EDGE_LOOP('',(#191));
#92=EDGE_LOOP('',(#192));
#93=EDGE_LOOP('',(#193));
#94=EDGE_LOOP('',(#194));
#95=EDGE_LOOP('',(#195));
#96=EDGE_LOOP('',(#196));
#97=EDGE_LOOP('',(#197));
#98=EDGE_LOOP('',(#198));
#99=EDGE_LOOP('',(#199));
#100=EDGE_LOOP('',(#200));
#101=EDGE_LOOP('',(#201));
#102=EDGE_LOOP('',(#202));
#103=EDGE_LOOP('',(#203));
#104=EDGE_LOOP('',(#204));
#105=EDGE_LOOP('',(#205));
#106=CIRCLE('',#267,12.4795);
#107=CIRCLE('',#268,12.);
#108=CIRCLE('',#270,11.5);
#109=CIRCLE('',#272,11.5);
#110=CIRCLE('',#274,11.5);
#111=CIRCLE('',#277,12.4795);
#112=CIRCLE('',#279,13.2295);
#113=CIRCLE('',#280,13.5295);
#114=CIRCLE('',#282,13.8);
#115=CIRCLE('',#284,13.2295);
#116=CIRCLE('',#286,14.3);
#117=CIRCLE('',#288,14.3);
#118=CIRCLE('',#290,13.5295);
#119=CIRCLE('',#292,13.5295);
#120=CIRCLE('',#294,13.5);
#121=CIRCLE('',#295,13.2);
#122=CIRCLE('',#297,13.5);
#123=CIRCLE('',#300,13.15);
#124=CIRCLE('',#302,13.15);
#125=CIRCLE('',#304,11.5);
#126=VERTEX_POINT('',#393);
#127=VERTEX_POINT('',#395);
#128=VERTEX_POINT('',#398);
#129=VERTEX_POINT('',#401);
#130=VERTEX_POINT('',#404);
#131=VERTEX_POINT('',#408);
#132=VERTEX_POINT('',#411);
#133=VERTEX_POINT('',#413);
#134=VERTEX_POINT('',#416);
#135=VERTEX_POINT('',#419);
#136=VERTEX_POINT('',#422);
#137=VERTEX_POINT('',#425);
#138=VERTEX_POINT('',#428);
#139=VERTEX_POINT('',#431);
#140=VERTEX_POINT('',#434);
#141=VERTEX_POINT('',#436);
#142=VERTEX_POINT('',#439);
#143=VERTEX_POINT('',#443);
#144=VERTEX_POINT('',#446);
#145=VERTEX_POINT('',#449);
#146=EDGE_CURVE('',#126,#126,#106,.T.);
#147=EDGE_CURVE('',#127,#127,#107,.T.);
#148=EDGE_CURVE('',#128,#128,#108,.T.);
#149=EDGE_CURVE('',#129,#129,#109,.T.);
#150=EDGE_CURVE('',#130,#130,#110,.T.);
#151=EDGE_CURVE('',#131,#131,#111,.T.);
#152=EDGE_CURVE('',#132,#132,#112,.T.);
#153=EDGE_CURVE('',#133,#133,#113,.T.);
#154=EDGE_CURVE('',#134,#134,#114,.T.);
#155=EDGE_CURVE('',#135,#135,#115,.T.);
#156=EDGE_CURVE('',#136,#136,#116,.T.);
#157=EDGE_CURVE('',#137,#137,#117,.T.);
#158=EDGE_CURVE('',#138,#138,#118,.T.);
#159=EDGE_CURVE('',#139,#139,#119,.T.);
#160=EDGE_CURVE('',#140,#140,#120,.T.);
#161=EDGE_CURVE('',#141,#141,#121,.T.);
#162=EDGE_CURVE('',#142,#142,#122,.T.);
#163=EDGE_CURVE('',#143,#143,#123,.T.);
#164=EDGE_CURVE('',#144,#144,#124,.T.);
#165=EDGE_CURVE('',#145,#145,#125,.T.);
#166=ORIENTED_EDGE('',*,*,#146,.F.);
#167=ORIENTED_EDGE('',*,*,#147,.F.);
#168=ORIENTED_EDGE('',*,*,#147,.T.);
#169=ORIENTED_EDGE('',*,*,#148,.T.);
#170=ORIENTED_EDGE('',*,*,#149,.F.);
#171=ORIENTED_EDGE('',*,*,#148,.F.);
#172=ORIENTED_EDGE('',*,*,#150,.F.);
#173=ORIENTED_EDGE('',*,*,#149,.T.);
#174=ORIENTED_EDGE('',*,*,#146,.T.);
#175=ORIENTED_EDGE('',*,*,#151,.F.);
#176=ORIENTED_EDGE('',*,*,#152,.T.);
#177=ORIENTED_EDGE('',*,*,#153,.T.);
#178=ORIENTED_EDGE('',*,*,#154,.F.);
#179=ORIENTED_EDGE('',*,*,#153,.F.);
#180=ORIENTED_EDGE('',*,*,#155,.T.);
#181=ORIENTED_EDGE('',*,*,#152,.F.);
#182=ORIENTED_EDGE('',*,*,#154,.T.);
#183=ORIENTED_EDGE('',*,*,#156,.T.);
#184=ORIENTED_EDGE('',*,*,#157,.F.);
#185=ORIENTED_EDGE('',*,*,#156,.F.);
#186=ORIENTED_EDGE('',*,*,#158,.T.);
#187=ORIENTED_EDGE('',*,*,#155,.F.);
#188=ORIENTED_EDGE('',*,*,#158,.F.);
#189=ORIENTED_EDGE('',*,*,#159,.T.);
#190=ORIENTED_EDGE('',*,*,#160,.T.);
#191=ORIENTED_EDGE('',*,*,#161,.T.);
#192=ORIENTED_EDGE('',*,*,#162,.T.);
#193=ORIENTED_EDGE('',*,*,#160,.F.);
#194=ORIENTED_EDGE('',*,*,#161,.F.);
#195=ORIENTED_EDGE('',*,*,#151,.T.);
#196=ORIENTED_EDGE('',*,*,#162,.F.);
#197=ORIENTED_EDGE('',*,*,#163,.T.);
#198=ORIENTED_EDGE('',*,*,#163,.F.);
#199=ORIENTED_EDGE('',*,*,#164,.T.);
#200=ORIENTED_EDGE('',*,*,#159,.F.);
#201=ORIENTED_EDGE('',*,*,#165,.F.);
#202=ORIENTED_EDGE('',*,*,#157,.T.);
#203=ORIENTED_EDGE('',*,*,#164,.F.);
#204=ORIENTED_EDGE('',*,*,#150,.T.);
#205=ORIENTED_EDGE('',*,*,#165,.T.);
#206=PLANE('',#266);
#207=PLANE('',#273);
#208=PLANE('',#275);
#209=PLANE('',#281);
#210=PLANE('',#289);
#211=PLANE('',#298);
#212=PLANE('',#299);
#213=PLANE('',#303);
#214=PLANE('',#305);
#215=STYLED_ITEM('',(#475),#237);
#216=STYLED_ITEM('',(#475),#238);
#217=STYLED_ITEM('',(#475),#239);
#218=STYLED_ITEM('',(#476),#240);
#219=STYLED_ITEM('',(#476),#241);
#220=STYLED_ITEM('',(#475),#242);
#221=STYLED_ITEM('',(#475),#243);
#222=STYLED_ITEM('',(#475),#244);
#223=STYLED_ITEM('',(#475),#245);
#224=STYLED_ITEM('',(#475),#246);
#225=STYLED_ITEM('',(#475),#247);
#226=STYLED_ITEM('',(#475),#248);
#227=STYLED_ITEM('',(#475),#249);
#228=STYLED_ITEM('',(#475),#250);
#229=STYLED_ITEM('',(#475),#251);
#230=STYLED_ITEM('',(#475),#252);
#231=STYLED_ITEM('',(#475),#253);
#232=STYLED_ITEM('',(#475),#254);
#233=STYLED_ITEM('',(#475),#255);
#234=STYLED_ITEM('',(#475),#256);
#235=STYLED_ITEM('',(#475),#257);
#236=STYLED_ITEM('',(#474),#13);
#237=ADVANCED_FACE('',(#45,#26),#206,.T.);
#238=ADVANCED_FACE('',(#46,#27),#23,.F.);
#239=ADVANCED_FACE('',(#47,#28),#15,.F.);
#240=ADVANCED_FACE('',(#48),#207,.F.);
#241=ADVANCED_FACE('',(#49),#208,.T.);
#242=ADVANCED_FACE('',(#50,#29),#16,.F.);
#243=ADVANCED_FACE('',(#51,#30),#24,.F.);
#244=ADVANCED_FACE('',(#52,#31),#209,.T.);
#245=ADVANCED_FACE('',(#53,#32),#17,.F.);
#246=ADVANCED_FACE('',(#54,#33),#14,.T.);
#247=ADVANCED_FACE('',(#55,#34),#18,.T.);
#248=ADVANCED_FACE('',(#56,#35),#210,.F.);
#249=ADVANCED_FACE('',(#57,#36),#19,.F.);
#250=ADVANCED_FACE('',(#58,#37),#25,.T.);
#251=ADVANCED_FACE('',(#59,#38),#20,.T.);
#252=ADVANCED_FACE('',(#60,#39),#211,.T.);
#253=ADVANCED_FACE('',(#61,#40),#212,.F.);
#254=ADVANCED_FACE('',(#62,#41),#21,.T.);
#255=ADVANCED_FACE('',(#63,#42),#213,.T.);
#256=ADVANCED_FACE('',(#64,#43),#214,.T.);
#257=ADVANCED_FACE('',(#65,#44),#22,.F.);
#258=CLOSED_SHELL('',(#237,#238,#239,#240,#241,#242,#243,#244,#245,#246,
#247,#248,#249,#250,#251,#252,#253,#254,#255,#256,#257));
#259=DATE_TIME_ROLE('creation_date');
#260=APPLIED_DATE_AND_TIME_ASSIGNMENT(#261,#259,(#467));
#261=DATE_AND_TIME(#262,#263);
#262=CALENDAR_DATE(2021,21,6);
#263=LOCAL_TIME(13,10,20.,#264);
#264=COORDINATED_UNIVERSAL_TIME_OFFSET(0,0,.BEHIND.);
#265=AXIS2_PLACEMENT_3D('placement',#391,#307,#308);
#266=AXIS2_PLACEMENT_3D('',#392,#309,#310);
#267=AXIS2_PLACEMENT_3D('',#394,#311,#312);
#268=AXIS2_PLACEMENT_3D('',#396,#313,#314);
#269=AXIS2_PLACEMENT_3D('',#397,#315,#316);
#270=AXIS2_PLACEMENT_3D('',#399,#317,#318);
#271=AXIS2_PLACEMENT_3D('',#400,#319,#320);
#272=AXIS2_PLACEMENT_3D('',#402,#321,#322);
#273=AXIS2_PLACEMENT_3D('',#403,#323,#324);
#274=AXIS2_PLACEMENT_3D('',#405,#325,#326);
#275=AXIS2_PLACEMENT_3D('',#406,#327,#328);
#276=AXIS2_PLACEMENT_3D('',#407,#329,#330);
#277=AXIS2_PLACEMENT_3D('',#409,#331,#332);
#278=AXIS2_PLACEMENT_3D('',#410,#333,#334);
#279=AXIS2_PLACEMENT_3D('',#412,#335,#336);
#280=AXIS2_PLACEMENT_3D('',#414,#337,#338);
#281=AXIS2_PLACEMENT_3D('',#415,#339,#340);
#282=AXIS2_PLACEMENT_3D('',#417,#341,#342);
#283=AXIS2_PLACEMENT_3D('',#418,#343,#344);
#284=AXIS2_PLACEMENT_3D('',#420,#345,#346);
#285=AXIS2_PLACEMENT_3D('',#421,#347,#348);
#286=AXIS2_PLACEMENT_3D('',#423,#349,#350);
#287=AXIS2_PLACEMENT_3D('',#424,#351,#352);
#288=AXIS2_PLACEMENT_3D('',#426,#353,#354);
#289=AXIS2_PLACEMENT_3D('',#427,#355,#356);
#290=AXIS2_PLACEMENT_3D('',#429,#357,#358);
#291=AXIS2_PLACEMENT_3D('',#430,#359,#360);
#292=AXIS2_PLACEMENT_3D('',#432,#361,#362);
#293=AXIS2_PLACEMENT_3D('',#433,#363,#364);
#294=AXIS2_PLACEMENT_3D('',#435,#365,#366);
#295=AXIS2_PLACEMENT_3D('',#437,#367,#368);
#296=AXIS2_PLACEMENT_3D('',#438,#369,#370);
#297=AXIS2_PLACEMENT_3D('',#440,#371,#372);
#298=AXIS2_PLACEMENT_3D('',#441,#373,#374);
#299=AXIS2_PLACEMENT_3D('',#442,#375,#376);
#300=AXIS2_PLACEMENT_3D('',#444,#377,#378);
#301=AXIS2_PLACEMENT_3D('',#445,#379,#380);
#302=AXIS2_PLACEMENT_3D('',#447,#381,#382);
#303=AXIS2_PLACEMENT_3D('',#448,#383,#384);
#304=AXIS2_PLACEMENT_3D('',#450,#385,#386);
#305=AXIS2_PLACEMENT_3D('',#451,#387,#388);
#306=AXIS2_PLACEMENT_3D('',#452,#389,#390);
#307=DIRECTION('axis',(0.,0.,1.));
#308=DIRECTION('refdir',(1.,0.,0.));
#309=DIRECTION('center_axis',(-4.00027258021179E-16,-1.,9.86076131526265E-32));
#310=DIRECTION('ref_axis',(0.83812460560587,-3.5527136788005E-16,-0.545478822208531));
#311=DIRECTION('center_axis',(4.00027258021179E-16,1.,-9.86076131526265E-32));
#312=DIRECTION('ref_axis',(-1.,6.63293271290038E-31,-2.14406192932515E-61));
#313=DIRECTION('center_axis',(-4.00027258021179E-16,-1.,9.86076131526265E-32));
#314=DIRECTION('ref_axis',(-0.545478822208531,2.18206397556701E-16,-0.838124605605869));
#315=DIRECTION('center_axis',(-4.00027258021179E-16,-1.,9.86076131526265E-32));
#316=DIRECTION('ref_axis',(-0.545478822208531,2.18206397556701E-16,-0.838124605605869));
#317=DIRECTION('center_axis',(4.00027258021179E-16,1.,-9.86076131526265E-32));
#318=DIRECTION('ref_axis',(-0.545478822208531,2.18206397556701E-16,-0.83812460560587));
#319=DIRECTION('center_axis',(-4.00027258021179E-16,-1.,9.86076131526265E-32));
#320=DIRECTION('ref_axis',(0.545478822208531,-2.18206397556701E-16,0.83812460560587));
#321=DIRECTION('center_axis',(-2.41938350252885E-16,-1.,-1.23259516440783E-32));
#322=DIRECTION('ref_axis',(0.545478822208531,-2.18206397556701E-16,0.83812460560587));
#323=DIRECTION('center_axis',(-2.41938350252885E-16,-1.,-1.23259516440783E-32));
#324=DIRECTION('ref_axis',(0.906441809599971,-2.22044604925031E-16,-0.422330730363219));
#325=DIRECTION('center_axis',(-6.63293271290038E-31,-1.,5.45018859521043E-107));
#326=DIRECTION('ref_axis',(2.14406192932515E-61,-1.42214185095051E-91,-1.));
#327=DIRECTION('center_axis',(-2.41938350252885E-16,-1.,-1.23259516440783E-32));
#328=DIRECTION('ref_axis',(0.906441809599971,-2.22044604925031E-16,-0.422330730363219));
#329=DIRECTION('center_axis',(-6.63293271290038E-31,-1.,5.45018859521043E-107));
#330=DIRECTION('ref_axis',(-1.,6.63293271290038E-31,-2.14406192932515E-61));
#331=DIRECTION('center_axis',(6.63293271290038E-31,1.,-5.45018859521043E-107));
#332=DIRECTION('ref_axis',(-1.,6.63293271290038E-31,-2.14406192932515E-61));
#333=DIRECTION('center_axis',(6.63293271290038E-31,1.,-5.45018859521043E-107));
#334=DIRECTION('ref_axis',(-1.,6.63293271290038E-31,-2.14406192932515E-61));
#335=DIRECTION('center_axis',(-6.63293271290038E-31,-1.,5.45018859521043E-107));
#336=DIRECTION('ref_axis',(-1.,6.63293271290038E-31,-2.14406192932515E-61));
#337=DIRECTION('center_axis',(6.63293271290038E-31,1.,-5.45018859521043E-107));
#338=DIRECTION('ref_axis',(-1.,6.63293271290038E-31,-2.14406192932515E-61));
#339=DIRECTION('center_axis',(6.63293271290038E-31,1.,-5.45018859521043E-107));
#340=DIRECTION('ref_axis',(1.,0.,0.));
#341=DIRECTION('center_axis',(-6.63293271290038E-31,-1.,5.45018859521043E-107));
#342=DIRECTION('ref_axis',(6.12323399573677E-17,-4.06149990790661E-47,1.));
#343=DIRECTION('center_axis',(6.63293271290038E-31,1.,-5.45018859521043E-107));
#344=DIRECTION('ref_axis',(1.,-6.63293271290038E-31,2.14406192932515E-61));
#345=DIRECTION('center_axis',(-6.63293271290038E-31,-1.,5.45018859521043E-107));
#346=DIRECTION('ref_axis',(1.,-6.63293271290038E-31,2.14406192932515E-61));
#347=DIRECTION('center_axis',(-6.63293271290038E-31,-1.,5.45018859521043E-107));
#348=DIRECTION('ref_axis',(-1.,0.,-2.14406192932515E-61));
#349=DIRECTION('center_axis',(6.63293271290038E-31,1.,-5.45018859521043E-107));
#350=DIRECTION('ref_axis',(6.12323399573677E-17,-4.06149990790661E-47,1.));
#351=DIRECTION('center_axis',(-6.63293271290038E-31,-1.,5.45018859521043E-107));
#352=DIRECTION('ref_axis',(2.14406192932515E-61,-1.42214185095051E-91,-1.));
#353=DIRECTION('center_axis',(-6.63293271290038E-31,-1.,5.45018859521043E-107));
#354=DIRECTION('ref_axis',(1.,-6.63293271290038E-31,2.14406192932515E-61));
#355=DIRECTION('center_axis',(6.63293271290038E-31,1.,-5.45018859521043E-107));
#356=DIRECTION('ref_axis',(1.,0.,0.));
#357=DIRECTION('center_axis',(-6.63293271290038E-31,-1.,5.45018859521043E-107));
#358=DIRECTION('ref_axis',(1.,-6.63293271290038E-31,2.14406192932515E-61));
#359=DIRECTION('center_axis',(-6.63293271290038E-31,-1.,5.45018859521043E-107));
#360=DIRECTION('ref_axis',(2.14406192932515E-61,-1.42214185095051E-91,-1.));
#361=DIRECTION('center_axis',(-6.63293271290038E-31,-1.,5.45018859521043E-107));
#362=DIRECTION('ref_axis',(1.,-6.63293271290038E-31,2.14406192932515E-61));
#363=DIRECTION('center_axis',(6.63293271290038E-31,1.,-5.45018859521043E-107));
#364=DIRECTION('ref_axis',(-2.14406192932515E-61,1.42214185095051E-91,1.));
#365=DIRECTION('center_axis',(-6.63293271290038E-31,-1.,5.45018859521043E-107));
#366=DIRECTION('ref_axis',(-2.14406192932515E-61,1.42214185095051E-91,1.));
#367=DIRECTION('center_axis',(6.63293271290038E-31,1.,-5.45018859521043E-107));
#368=DIRECTION('ref_axis',(-2.14406192932515E-61,1.42214185095051E-91,1.));
#369=DIRECTION('center_axis',(-6.63293271290038E-31,-1.,5.45018859521043E-107));
#370=DIRECTION('ref_axis',(2.14406192932515E-61,-1.42214185095051E-91,-1.));
#371=DIRECTION('center_axis',(-6.63293271290038E-31,-1.,5.45018859521043E-107));
#372=DIRECTION('ref_axis',(2.14406192932515E-61,-1.42214185095051E-91,-1.));
#373=DIRECTION('center_axis',(-6.63293271290038E-31,-1.,5.45018859521043E-107));
#374=DIRECTION('ref_axis',(-1.,0.,0.));
#375=DIRECTION('center_axis',(-6.63293271290038E-31,-1.,5.45018859521043E-107));
#376=DIRECTION('ref_axis',(-1.,0.,0.));
#377=DIRECTION('center_axis',(-6.63293271290038E-31,-1.,5.45018859521043E-107));
#378=DIRECTION('ref_axis',(1.,-6.63293271290038E-31,2.14406192932515E-61));
#379=DIRECTION('center_axis',(-6.63293271290038E-31,-1.,5.45018859521043E-107));
#380=DIRECTION('ref_axis',(2.14406192932515E-61,-1.42214185095051E-91,-1.));
#381=DIRECTION('center_axis',(-6.63293271290038E-31,-1.,5.45018859521043E-107));
#382=DIRECTION('ref_axis',(1.,-6.63293271290038E-31,2.14406192932515E-61));
#383=DIRECTION('center_axis',(6.63293271290038E-31,1.,-5.45018859521043E-107));
#384=DIRECTION('ref_axis',(1.,0.,2.14406192932515E-61));
#385=DIRECTION('center_axis',(6.63293271290038E-31,1.,-5.45018859521043E-107));
#386=DIRECTION('ref_axis',(2.14406192932515E-61,-1.42214185095051E-91,-1.));
#387=DIRECTION('center_axis',(-6.63293271290038E-31,-1.,5.45018859521043E-107));
#388=DIRECTION('ref_axis',(-1.,0.,0.));
#389=DIRECTION('center_axis',(-6.63293271290038E-31,-1.,5.45018859521043E-107));
#390=DIRECTION('ref_axis',(2.14406192932515E-61,-1.42214185095051E-91,-1.));
#391=CARTESIAN_POINT('',(0.,0.,0.));
#392=CARTESIAN_POINT('Origin',(6.2730064553981,-2.69999999999998,9.6384329644675));
#393=CARTESIAN_POINT('',(12.4795,-2.69999999999998,-1.52829797299594E-15));
#394=CARTESIAN_POINT('Origin',(-1.79089183248309E-30,-2.69999999999998,
1.47155092070681E-106));
#395=CARTESIAN_POINT('',(6.54574586650237,-2.69999999999998,10.0574952672704));
#396=CARTESIAN_POINT('Origin',(-3.00020443515885E-16,-2.69999999999998,
-9.32407556039518E-31));
#397=CARTESIAN_POINT('Origin',(-2.0001362901059E-16,-2.44999999999998,-9.57059459327674E-31));
#398=CARTESIAN_POINT('',(6.2730064553981,-2.19999999999998,9.6384329644675));
#399=CARTESIAN_POINT('Origin',(-1.00006814505296E-16,-2.19999999999998,
-9.81711362615831E-31));
#400=CARTESIAN_POINT('Origin',(-9.0892904084951E-31,-1.94999999999998,-1.00636326590399E-30));
#401=CARTESIAN_POINT('',(6.2730064553981,-1.19999999999998,9.6384329644675));
#402=CARTESIAN_POINT('Origin',(3.0002044351588E-16,-1.19999999999998,-1.08031897576846E-30));
#403=CARTESIAN_POINT('Origin',(4.8387670050577E-16,0.800000000000017,-4.77052910890483E-32));
#404=CARTESIAN_POINT('',(-1.40834381901946E-15,0.8,11.5));
#405=CARTESIAN_POINT('Origin',(5.3063461703203E-31,0.8,-4.36015087616834E-107));
#406=CARTESIAN_POINT('Origin',(-6.1839756583239E-31,-1.19999999999998,-7.23571943772049E-32));
#407=CARTESIAN_POINT('Origin',(-7.95951925548046E-31,-1.2,6.54022631425252E-107));
#408=CARTESIAN_POINT('',(-12.4795,-3.2,-2.67568208470132E-60));
#409=CARTESIAN_POINT('Origin',(-2.12253846812812E-30,-3.2,1.74406035046734E-106));
#410=CARTESIAN_POINT('Origin',(2.02304447743462E-30,3.05,-1.66230752153918E-106));
#411=CARTESIAN_POINT('',(13.2295,2.9,1.62014648293199E-15));
#412=CARTESIAN_POINT('Origin',(1.92355048674111E-30,2.9,-1.58055469261103E-106));
#413=CARTESIAN_POINT('',(13.5295,3.2,-1.65688588690641E-15));
#414=CARTESIAN_POINT('Origin',(2.12253846812812E-30,3.2,-1.74406035046734E-106));
#415=CARTESIAN_POINT('Origin',(2.12253846812812E-30,3.2,-14.3));
#416=CARTESIAN_POINT('',(8.45006291411676E-16,3.2,-13.8));
#417=CARTESIAN_POINT('Origin',(2.12253846812812E-30,3.2,-1.74406035046734E-106));
#418=CARTESIAN_POINT('Origin',(1.45924519683808E-30,2.2,-1.1990414909463E-106));
#419=CARTESIAN_POINT('',(9.94939906935057E-31,1.5,-13.2295));
#420=CARTESIAN_POINT('Origin',(9.94939906935057E-31,1.5,-8.17528289281565E-107));
#421=CARTESIAN_POINT('Origin',(1.7908918324831E-30,2.7,-1.47155092070682E-106));
#422=CARTESIAN_POINT('',(-2.62686738417107E-15,2.7,-14.3));
#423=CARTESIAN_POINT('Origin',(1.7908918324831E-30,2.7,-1.47155092070682E-106));
#424=CARTESIAN_POINT('Origin',(7.95951925548046E-31,1.2,-6.54022631425252E-107));
#425=CARTESIAN_POINT('',(-5.3063461703203E-31,-0.8,-14.3));
#426=CARTESIAN_POINT('Origin',(-5.3063461703203E-31,-0.8,4.36015087616834E-107));
#427=CARTESIAN_POINT('Origin',(9.94939906935057E-31,1.5,-13.5295));
#428=CARTESIAN_POINT('',(9.94939906935057E-31,1.5,-13.5295));
#429=CARTESIAN_POINT('Origin',(9.94939906935057E-31,1.5,-8.17528289281565E-107));
#430=CARTESIAN_POINT('Origin',(8.95445916241551E-31,1.35,-7.35775460353409E-107));
#431=CARTESIAN_POINT('',(7.95951925548046E-31,1.2,-13.5295));
#432=CARTESIAN_POINT('Origin',(7.95951925548046E-31,1.2,-6.54022631425252E-107));
#433=CARTESIAN_POINT('Origin',(-2.02304447743462E-30,-3.05,1.66230752153918E-106));
#434=CARTESIAN_POINT('',(1.65327317884892E-15,-2.9,-13.5));
#435=CARTESIAN_POINT('Origin',(-1.92355048674111E-30,-2.9,1.58055469261103E-106));
#436=CARTESIAN_POINT('',(-1.61653377487451E-15,-3.2,-13.2));
#437=CARTESIAN_POINT('Origin',(-2.12253846812812E-30,-3.2,1.74406035046734E-106));
#438=CARTESIAN_POINT('Origin',(-1.32658654258007E-30,-2.,1.09003771904209E-106));
#439=CARTESIAN_POINT('',(-7.62787261983543E-31,-1.15,-13.5));
#440=CARTESIAN_POINT('Origin',(-7.62787261983543E-31,-1.15,6.267716884492E-107));
#441=CARTESIAN_POINT('Origin',(-2.12253846812812E-30,-3.2,-11.5));
#442=CARTESIAN_POINT('Origin',(-7.62787261983543E-31,-1.15,-13.15));
#443=CARTESIAN_POINT('',(-7.62787261983543E-31,-1.15,-13.15));
#444=CARTESIAN_POINT('Origin',(-7.62787261983543E-31,-1.15,6.267716884492E-107));
#445=CARTESIAN_POINT('Origin',(-6.46710939507786E-31,-0.975,5.31393388033017E-107));
#446=CARTESIAN_POINT('',(-5.3063461703203E-31,-0.8,-13.15));
#447=CARTESIAN_POINT('Origin',(-5.3063461703203E-31,-0.8,4.36015087616834E-107));
#448=CARTESIAN_POINT('Origin',(7.95951925548046E-31,1.2,-6.54022631425252E-107));
#449=CARTESIAN_POINT('',(1.40834381901946E-15,1.2,11.5));
#450=CARTESIAN_POINT('Origin',(7.95951925548046E-31,1.2,-6.54022631425252E-107));
#451=CARTESIAN_POINT('Origin',(-5.3063461703203E-31,-0.8,-13.5));
#452=CARTESIAN_POINT('Origin',(0.,0.,0.));
#453=UNCERTAINTY_MEASURE_WITH_UNIT(LENGTH_MEASURE(0.01),#457,
'DISTANCE_ACCURACY_VALUE',
'Maximum model space distance between geometric entities at asserted c
onnectivities');
#454=UNCERTAINTY_MEASURE_WITH_UNIT(LENGTH_MEASURE(1.E-6),#457,
'DISTANCE_ACCURACY_VALUE',
'Maximum model space distance between geometric entities at asserted c
onnectivities');
#455=(
GEOMETRIC_REPRESENTATION_CONTEXT(3)
GLOBAL_UNCERTAINTY_ASSIGNED_CONTEXT((#453))
GLOBAL_UNIT_ASSIGNED_CONTEXT((#457,#460,#458))
REPRESENTATION_CONTEXT('','3D')
);
#456=(
GEOMETRIC_REPRESENTATION_CONTEXT(3)
GLOBAL_UNCERTAINTY_ASSIGNED_CONTEXT((#454))
GLOBAL_UNIT_ASSIGNED_CONTEXT((#457,#460,#458))
REPRESENTATION_CONTEXT('','3D')
);
#457=(
LENGTH_UNIT()
NAMED_UNIT(*)
SI_UNIT(.MILLI.,.METRE.)
);
#458=(
NAMED_UNIT(*)
SI_UNIT($,.STERADIAN.)
SOLID_ANGLE_UNIT()
);
#459=DIMENSIONAL_EXPONENTS(0.,0.,0.,0.,0.,0.,0.);
#460=(
CONVERSION_BASED_UNIT('degree',#462)
NAMED_UNIT(#459)
PLANE_ANGLE_UNIT()
);
#461=(
NAMED_UNIT(*)
PLANE_ANGLE_UNIT()
SI_UNIT($,.RADIAN.)
);
#462=PLANE_ANGLE_MEASURE_WITH_UNIT(PLANE_ANGLE_MEASURE(0.01745329252),#461);
#463=SHAPE_DEFINITION_REPRESENTATION(#464,#465);
#464=PRODUCT_DEFINITION_SHAPE('',$,#467);
#465=SHAPE_REPRESENTATION('',(#265),#455);
#466=PRODUCT_DEFINITION_CONTEXT('part definition',#471,'design');
#467=PRODUCT_DEFINITION('UV-Sperrfilter_M27x0,5',
'UV-Sperrfilter_M27x0,5',#468,#466);
#468=PRODUCT_DEFINITION_FORMATION('',$,#473);
#469=PRODUCT_RELATED_PRODUCT_CATEGORY('UV-Sperrfilter_M27x0,5',
'UV-Sperrfilter_M27x0,5',(#473));
#470=APPLICATION_PROTOCOL_DEFINITION('international standard',
'automotive_design',2009,#471);
#471=APPLICATION_CONTEXT(
'Core Data for Automotive Mechanical Design Process');
#472=PRODUCT_CONTEXT('part definition',#471,'mechanical');
#473=PRODUCT('UV-Sperrfilter_M27x0,5','UV-Sperrfilter_M27x0,5',
'',(#472));
#474=PRESENTATION_STYLE_ASSIGNMENT((#477));
#475=PRESENTATION_STYLE_ASSIGNMENT((#478));
#476=PRESENTATION_STYLE_ASSIGNMENT((#479));
#477=SURFACE_STYLE_USAGE(.BOTH.,#480);
#478=SURFACE_STYLE_USAGE(.BOTH.,#481);
#479=SURFACE_STYLE_USAGE(.BOTH.,#482);
#480=SURFACE_SIDE_STYLE('',(#483));
#481=SURFACE_SIDE_STYLE('',(#484));
#482=SURFACE_SIDE_STYLE('',(#485));
#483=SURFACE_STYLE_FILL_AREA(#486);
#484=SURFACE_STYLE_FILL_AREA(#487);
#485=SURFACE_STYLE_FILL_AREA(#488);
#486=FILL_AREA_STYLE('',(#489));
#487=FILL_AREA_STYLE('',(#490));
#488=FILL_AREA_STYLE('',(#491));
#489=FILL_AREA_STYLE_COLOUR('',#492);
#490=FILL_AREA_STYLE_COLOUR('',#493);
#491=FILL_AREA_STYLE_COLOUR('',#494);
#492=COLOUR_RGB('',0.956862745098039,0.945098039215686,0.972549019607843);
#493=COLOUR_RGB('',0.149019607843137,0.149019607843137,0.149019607843137);
#494=COLOUR_RGB('',0.901960784313726,0.901960784313726,0.901960784313726);
ENDSEC;
END-ISO-10303-21;
