ISO-10303-21;
HEADER;
/* Generated by software containing ST-Developer
 * from STEP Tools, Inc. (www.steptools.com) 
 */

FILE_DESCRIPTION(
/* description */ ('>>BEZEICHNUNG<<'),
/* implementation_level */ '2;1');

FILE_NAME(
/* name */ 
'H:\\CAD\\PROJEKTE\\208.130.000.26_RK3652_R\\PM\\web\\RK3652_AdapRing_
M39x0_5.stp',
/* time_stamp */ '2016-01-20T10:57:48+01:00',
/* author */ ('REGENSPURG'),
/* organization */ ('Vision & Control'),
/* preprocessor_version */ 'ST-DEVELOPER v15.2',
/* originating_system */ 'Autodesk Inventor 2014',
/* authorisation */ '');

FILE_SCHEMA (('AUTOMOTIVE_DESIGN { 1 0 10303 214 3 1 1 }'));
ENDSEC;

DATA;
#10=MECHANICAL_DESIGN_GEOMETRIC_PRESENTATION_REPRESENTATION('',(#13),#243);
#11=SHAPE_REPRESENTATION_RELATIONSHIP('SRR','None',#252,#12);
#12=ADVANCED_BREP_SHAPE_REPRESENTATION($,(#136),#242);
#13=STYLED_ITEM('',(#261),#136);
#14=CYLINDRICAL_SURFACE('',#143,19.5);
#15=CYLINDRICAL_SURFACE('',#147,18.);
#16=CYLINDRICAL_SURFACE('',#152,36.35);
#17=PLANE('',#141);
#18=PLANE('',#154);
#19=PLANE('',#157);
#20=FACE_BOUND('',#43,.T.);
#21=FACE_BOUND('',#44,.T.);
#22=FACE_BOUND('',#45,.T.);
#23=FACE_BOUND('',#47,.T.);
#24=FACE_BOUND('',#49,.T.);
#25=FACE_BOUND('',#51,.T.);
#26=FACE_BOUND('',#53,.T.);
#27=FACE_BOUND('',#55,.T.);
#28=FACE_BOUND('',#56,.T.);
#29=FACE_BOUND('',#57,.T.);
#30=FACE_BOUND('',#59,.T.);
#31=FACE_BOUND('',#60,.T.);
#32=FACE_BOUND('',#61,.T.);
#33=FACE_BOUND('',#63,.T.);
#34=FACE_OUTER_BOUND('',#42,.T.);
#35=FACE_OUTER_BOUND('',#46,.T.);
#36=FACE_OUTER_BOUND('',#48,.T.);
#37=FACE_OUTER_BOUND('',#50,.T.);
#38=FACE_OUTER_BOUND('',#52,.T.);
#39=FACE_OUTER_BOUND('',#54,.T.);
#40=FACE_OUTER_BOUND('',#58,.T.);
#41=FACE_OUTER_BOUND('',#62,.T.);
#42=EDGE_LOOP('',(#97));
#43=EDGE_LOOP('',(#98));
#44=EDGE_LOOP('',(#99));
#45=EDGE_LOOP('',(#100));
#46=EDGE_LOOP('',(#101));
#47=EDGE_LOOP('',(#102));
#48=EDGE_LOOP('',(#103));
#49=EDGE_LOOP('',(#104));
#50=EDGE_LOOP('',(#105));
#51=EDGE_LOOP('',(#106));
#52=EDGE_LOOP('',(#107));
#53=EDGE_LOOP('',(#108));
#54=EDGE_LOOP('',(#109));
#55=EDGE_LOOP('',(#110));
#56=EDGE_LOOP('',(#111));
#57=EDGE_LOOP('',(#112));
#58=EDGE_LOOP('',(#113));
#59=EDGE_LOOP('',(#114));
#60=EDGE_LOOP('',(#115));
#61=EDGE_LOOP('',(#116));
#62=EDGE_LOOP('',(#117));
#63=EDGE_LOOP('',(#118));
#64=CIRCLE('',#139,19.5);
#65=CIRCLE('',#140,19.4);
#66=CIRCLE('',#142,18.1);
#67=CIRCLE('',#144,19.5);
#68=CIRCLE('',#146,18.);
#69=CIRCLE('',#148,18.);
#70=CIRCLE('',#150,36.35);
#71=CIRCLE('',#151,36.25);
#72=CIRCLE('',#153,36.35);
#73=CIRCLE('',#156,36.25);
#74=CIRCLE('',#158,20.);
#75=VERTEX_POINT('',#208);
#76=VERTEX_POINT('',#210);
#77=VERTEX_POINT('',#213);
#78=VERTEX_POINT('',#216);
#79=VERTEX_POINT('',#219);
#80=VERTEX_POINT('',#222);
#81=VERTEX_POINT('',#225);
#82=VERTEX_POINT('',#227);
#83=VERTEX_POINT('',#230);
#84=VERTEX_POINT('',#234);
#85=VERTEX_POINT('',#237);
#86=EDGE_CURVE('',#75,#75,#64,.T.);
#87=EDGE_CURVE('',#76,#76,#65,.T.);
#88=EDGE_CURVE('',#77,#77,#66,.T.);
#89=EDGE_CURVE('',#78,#78,#67,.T.);
#90=EDGE_CURVE('',#79,#79,#68,.T.);
#91=EDGE_CURVE('',#80,#80,#69,.T.);
#92=EDGE_CURVE('',#81,#81,#70,.T.);
#93=EDGE_CURVE('',#82,#82,#71,.T.);
#94=EDGE_CURVE('',#83,#83,#72,.T.);
#95=EDGE_CURVE('',#84,#84,#73,.T.);
#96=EDGE_CURVE('',#85,#85,#74,.T.);
#97=ORIENTED_EDGE('',*,*,#86,.T.);
#98=ORIENTED_EDGE('',*,*,#87,.T.);
#99=ORIENTED_EDGE('',*,*,#88,.F.);
#100=ORIENTED_EDGE('',*,*,#87,.F.);
#101=ORIENTED_EDGE('',*,*,#89,.T.);
#102=ORIENTED_EDGE('',*,*,#86,.F.);
#103=ORIENTED_EDGE('',*,*,#88,.T.);
#104=ORIENTED_EDGE('',*,*,#90,.T.);
#105=ORIENTED_EDGE('',*,*,#91,.F.);
#106=ORIENTED_EDGE('',*,*,#90,.F.);
#107=ORIENTED_EDGE('',*,*,#92,.T.);
#108=ORIENTED_EDGE('',*,*,#93,.T.);
#109=ORIENTED_EDGE('',*,*,#94,.F.);
#110=ORIENTED_EDGE('',*,*,#92,.F.);
#111=ORIENTED_EDGE('',*,*,#89,.F.);
#112=ORIENTED_EDGE('',*,*,#93,.F.);
#113=ORIENTED_EDGE('',*,*,#95,.T.);
#114=ORIENTED_EDGE('',*,*,#94,.T.);
#115=ORIENTED_EDGE('',*,*,#96,.F.);
#116=ORIENTED_EDGE('',*,*,#95,.F.);
#117=ORIENTED_EDGE('',*,*,#91,.T.);
#118=ORIENTED_EDGE('',*,*,#96,.T.);
#119=CONICAL_SURFACE('',#138,19.45,45.);
#120=CONICAL_SURFACE('',#145,18.05,45.);
#121=CONICAL_SURFACE('',#149,36.3,44.9999999999997);
#122=CONICAL_SURFACE('',#155,36.3,44.9999999999994);
#123=CONICAL_SURFACE('',#159,19.,45.);
#124=ADVANCED_FACE('',(#34,#20),#119,.T.);
#125=ADVANCED_FACE('',(#21,#22),#17,.T.);
#126=ADVANCED_FACE('',(#35,#23),#14,.T.);
#127=ADVANCED_FACE('',(#36,#24),#120,.F.);
#128=ADVANCED_FACE('',(#37,#25),#15,.F.);
#129=ADVANCED_FACE('',(#38,#26),#121,.T.);
#130=ADVANCED_FACE('',(#39,#27),#16,.T.);
#131=ADVANCED_FACE('',(#28,#29),#18,.T.);
#132=ADVANCED_FACE('',(#40,#30),#122,.T.);
#133=ADVANCED_FACE('',(#31,#32),#19,.T.);
#134=ADVANCED_FACE('',(#41,#33),#123,.F.);
#135=CLOSED_SHELL('',(#124,#125,#126,#127,#128,#129,#130,#131,#132,#133,
#134));
#136=MANIFOLD_SOLID_BREP('Volumenk\X\F6rper1',#135);
#137=AXIS2_PLACEMENT_3D('placement',#206,#160,#161);
#138=AXIS2_PLACEMENT_3D('',#207,#162,#163);
#139=AXIS2_PLACEMENT_3D('',#209,#164,#165);
#140=AXIS2_PLACEMENT_3D('',#211,#166,#167);
#141=AXIS2_PLACEMENT_3D('',#212,#168,#169);
#142=AXIS2_PLACEMENT_3D('',#214,#170,#171);
#143=AXIS2_PLACEMENT_3D('',#215,#172,#173);
#144=AXIS2_PLACEMENT_3D('',#217,#174,#175);
#145=AXIS2_PLACEMENT_3D('',#218,#176,#177);
#146=AXIS2_PLACEMENT_3D('',#220,#178,#179);
#147=AXIS2_PLACEMENT_3D('',#221,#180,#181);
#148=AXIS2_PLACEMENT_3D('',#223,#182,#183);
#149=AXIS2_PLACEMENT_3D('',#224,#184,#185);
#150=AXIS2_PLACEMENT_3D('',#226,#186,#187);
#151=AXIS2_PLACEMENT_3D('',#228,#188,#189);
#152=AXIS2_PLACEMENT_3D('',#229,#190,#191);
#153=AXIS2_PLACEMENT_3D('',#231,#192,#193);
#154=AXIS2_PLACEMENT_3D('',#232,#194,#195);
#155=AXIS2_PLACEMENT_3D('',#233,#196,#197);
#156=AXIS2_PLACEMENT_3D('',#235,#198,#199);
#157=AXIS2_PLACEMENT_3D('',#236,#200,#201);
#158=AXIS2_PLACEMENT_3D('',#238,#202,#203);
#159=AXIS2_PLACEMENT_3D('',#239,#204,#205);
#160=DIRECTION('axis',(0.,0.,1.));
#161=DIRECTION('refdir',(1.,0.,0.));
#162=DIRECTION('center_axis',(0.,0.,-1.));
#163=DIRECTION('ref_axis',(0.,-1.,0.));
#164=DIRECTION('center_axis',(0.,0.,1.));
#165=DIRECTION('ref_axis',(0.,-1.,0.));
#166=DIRECTION('center_axis',(0.,0.,-1.));
#167=DIRECTION('ref_axis',(0.,-1.,0.));
#168=DIRECTION('center_axis',(0.,0.,1.));
#169=DIRECTION('ref_axis',(1.,0.,0.));
#170=DIRECTION('center_axis',(0.,0.,1.));
#171=DIRECTION('ref_axis',(0.,-1.,0.));
#172=DIRECTION('center_axis',(0.,0.,1.));
#173=DIRECTION('ref_axis',(0.,1.,0.));
#174=DIRECTION('center_axis',(0.,0.,1.));
#175=DIRECTION('ref_axis',(0.,1.,0.));
#176=DIRECTION('center_axis',(0.,0.,1.));
#177=DIRECTION('ref_axis',(0.,-1.,0.));
#178=DIRECTION('center_axis',(0.,0.,-1.));
#179=DIRECTION('ref_axis',(0.,-1.,0.));
#180=DIRECTION('center_axis',(0.,0.,1.));
#181=DIRECTION('ref_axis',(0.,1.,0.));
#182=DIRECTION('center_axis',(0.,0.,1.));
#183=DIRECTION('ref_axis',(0.,-1.,0.));
#184=DIRECTION('center_axis',(0.,0.,-1.));
#185=DIRECTION('ref_axis',(0.,-1.,0.));
#186=DIRECTION('center_axis',(0.,0.,1.));
#187=DIRECTION('ref_axis',(0.,-1.,0.));
#188=DIRECTION('center_axis',(0.,0.,-1.));
#189=DIRECTION('ref_axis',(0.,-1.,0.));
#190=DIRECTION('center_axis',(0.,0.,1.));
#191=DIRECTION('ref_axis',(0.,1.,0.));
#192=DIRECTION('center_axis',(0.,0.,-1.));
#193=DIRECTION('ref_axis',(0.,-1.,0.));
#194=DIRECTION('center_axis',(0.,0.,1.));
#195=DIRECTION('ref_axis',(1.,0.,0.));
#196=DIRECTION('center_axis',(0.,0.,1.));
#197=DIRECTION('ref_axis',(0.,-1.,0.));
#198=DIRECTION('center_axis',(0.,0.,1.));
#199=DIRECTION('ref_axis',(0.,-1.,0.));
#200=DIRECTION('center_axis',(0.,0.,-1.));
#201=DIRECTION('ref_axis',(-1.,0.,0.));
#202=DIRECTION('center_axis',(0.,0.,-1.));
#203=DIRECTION('ref_axis',(0.,-1.,0.));
#204=DIRECTION('center_axis',(0.,0.,-1.));
#205=DIRECTION('ref_axis',(0.,-1.,0.));
#206=CARTESIAN_POINT('',(0.,0.,0.));
#207=CARTESIAN_POINT('Origin',(0.,0.,4.95));
#208=CARTESIAN_POINT('',(-2.38806125833734E-015,19.5,4.9));
#209=CARTESIAN_POINT('Origin',(0.,0.,4.9));
#210=CARTESIAN_POINT('',(2.37581479034587E-015,19.4,5.));
#211=CARTESIAN_POINT('Origin',(0.,0.,5.));
#212=CARTESIAN_POINT('Origin',(0.,18.75,5.));
#213=CARTESIAN_POINT('',(-2.21661070645671E-015,18.1,5.));
#214=CARTESIAN_POINT('Origin',(0.,0.,5.));
#215=CARTESIAN_POINT('Origin',(0.,0.,4.1));
#216=CARTESIAN_POINT('',(0.,19.5,3.2));
#217=CARTESIAN_POINT('Origin',(0.,0.,3.2));
#218=CARTESIAN_POINT('Origin',(0.,0.,4.95));
#219=CARTESIAN_POINT('',(2.20436423846524E-015,18.,4.9));
#220=CARTESIAN_POINT('Origin',(0.,0.,4.9));
#221=CARTESIAN_POINT('Origin',(0.,0.,0.250000000000002));
#222=CARTESIAN_POINT('',(-2.20436423846524E-015,18.,2.));
#223=CARTESIAN_POINT('Origin',(0.,0.,2.));
#224=CARTESIAN_POINT('Origin',(0.,0.,3.15));
#225=CARTESIAN_POINT('',(-4.45159111490063E-015,36.35,3.1));
#226=CARTESIAN_POINT('Origin',(0.,0.,3.1));
#227=CARTESIAN_POINT('',(4.43934464690916E-015,36.25,3.2));
#228=CARTESIAN_POINT('Origin',(0.,0.,3.2));
#229=CARTESIAN_POINT('Origin',(0.,0.,1.6));
#230=CARTESIAN_POINT('',(4.45159111490063E-015,36.35,0.1));
#231=CARTESIAN_POINT('Origin',(0.,0.,0.1));
#232=CARTESIAN_POINT('Origin',(0.,27.925,3.2));
#233=CARTESIAN_POINT('Origin',(0.,0.,0.05));
#234=CARTESIAN_POINT('',(-4.43934464690916E-015,36.25,0.));
#235=CARTESIAN_POINT('Origin',(0.,0.,0.));
#236=CARTESIAN_POINT('Origin',(0.,27.175,0.));
#237=CARTESIAN_POINT('',(2.44929359829471E-015,20.,0.));
#238=CARTESIAN_POINT('Origin',(0.,0.,0.));
#239=CARTESIAN_POINT('Origin',(0.,0.,1.));
#240=UNCERTAINTY_MEASURE_WITH_UNIT(LENGTH_MEASURE(0.01),#244,
'DISTANCE_ACCURACY_VALUE',
'Maximum model space distance between geometric entities at asserted c
onnectivities');
#241=UNCERTAINTY_MEASURE_WITH_UNIT(LENGTH_MEASURE(1.E-006),#244,
'DISTANCE_ACCURACY_VALUE',
'Maximum model space distance between geometric entities at asserted c
onnectivities');
#242=(
GEOMETRIC_REPRESENTATION_CONTEXT(3)
GLOBAL_UNCERTAINTY_ASSIGNED_CONTEXT((#240))
GLOBAL_UNIT_ASSIGNED_CONTEXT((#244,#247,#245))
REPRESENTATION_CONTEXT('','3D')
);
#243=(
GEOMETRIC_REPRESENTATION_CONTEXT(3)
GLOBAL_UNCERTAINTY_ASSIGNED_CONTEXT((#241))
GLOBAL_UNIT_ASSIGNED_CONTEXT((#244,#247,#245))
REPRESENTATION_CONTEXT('','3D')
);
#244=(
LENGTH_UNIT()
NAMED_UNIT(*)
SI_UNIT(.MILLI.,.METRE.)
);
#245=(
NAMED_UNIT(*)
SI_UNIT($,.STERADIAN.)
SOLID_ANGLE_UNIT()
);
#246=DIMENSIONAL_EXPONENTS(0.,0.,0.,0.,0.,0.,0.);
#247=(
CONVERSION_BASED_UNIT('degree',#249)
NAMED_UNIT(#246)
PLANE_ANGLE_UNIT()
);
#248=(
NAMED_UNIT(*)
PLANE_ANGLE_UNIT()
SI_UNIT($,.RADIAN.)
);
#249=PLANE_ANGLE_MEASURE_WITH_UNIT(PLANE_ANGLE_MEASURE(0.01745329252),#248);
#250=SHAPE_DEFINITION_REPRESENTATION(#251,#252);
#251=PRODUCT_DEFINITION_SHAPE('',$,#254);
#252=SHAPE_REPRESENTATION('',(#137),#242);
#253=PRODUCT_DEFINITION_CONTEXT('part definition',#258,'design');
#254=PRODUCT_DEFINITION('RK3652_AdapRing_M39x0_5',
'RK3652_AdapRing_M39x0_5',#255,#253);
#255=PRODUCT_DEFINITION_FORMATION('',$,#260);
#256=PRODUCT_RELATED_PRODUCT_CATEGORY('RK3652_AdapRing_M39x0_5',
'RK3652_AdapRing_M39x0_5',(#260));
#257=APPLICATION_PROTOCOL_DEFINITION('international standard',
'automotive_design',2009,#258);
#258=APPLICATION_CONTEXT(
'Core Data for Automotive Mechanical Design Process');
#259=PRODUCT_CONTEXT('part definition',#258,'mechanical');
#260=PRODUCT('RK3652_AdapRing_M39x0_5','RK3652_AdapRing_M39x0_5',$,(#259));
#261=PRESENTATION_STYLE_ASSIGNMENT((#262));
#262=SURFACE_STYLE_USAGE(.BOTH.,#263);
#263=SURFACE_SIDE_STYLE($,(#264));
#264=SURFACE_STYLE_FILL_AREA(#265);
#265=FILL_AREA_STYLE($,(#266));
#266=FILL_AREA_STYLE_COLOUR($,#267);
#267=COLOUR_RGB('',0.16078431372549,0.16078431372549,0.16078431372549);
ENDSEC;
END-ISO-10303-21;
ISO-10303-21;
HEADER;
/* Generated by software containing ST-Developer
 * from STEP Tools, Inc. (www.steptools.com) 
 */

FILE_DESCRIPTION(
/* description */ ('>>BEZEICHNUNG<<'),
/* implementation_level */ '2;1');

FILE_NAME(
/* name */ 
'H:\\CAD\\PROJEKTE\\208.130.000.26_RK3652_R\\PM\\web\\RK3652_AdapRing_
M39x0_5.stp',
/* time_stamp */ '2016-01-20T10:57:48+01:00',
/* author */ ('REGENSPURG'),
/* organization */ ('Vision & Control'),
/* preprocessor_version */ 'ST-DEVELOPER v15.2',
/* originating_system */ 'Autodesk Inventor 2014',
/* authorisation */ '');

FILE_SCHEMA (('AUTOMOTIVE_DESIGN { 1 0 10303 214 3 1 1 }'));
ENDSEC;

DATA;
#10=MECHANICAL_DESIGN_GEOMETRIC_PRESENTATION_REPRESENTATION('',(#13),#243);
#11=SHAPE_REPRESENTATION_RELATIONSHIP('SRR','None',#252,#12);
#12=ADVANCED_BREP_SHAPE_REPRESENTATION($,(#136),#242);
#13=STYLED_ITEM('',(#261),#136);
#14=CYLINDRICAL_SURFACE('',#143,19.5);
#15=CYLINDRICAL_SURFACE('',#147,18.);
#16=CYLINDRICAL_SURFACE('',#152,36.35);
#17=PLANE('',#141);
#18=PLANE('',#154);
#19=PLANE('',#157);
#20=FACE_BOUND('',#43,.T.);
#21=FACE_BOUND('',#44,.T.);
#22=FACE_BOUND('',#45,.T.);
#23=FACE_BOUND('',#47,.T.);
#24=FACE_BOUND('',#49,.T.);
#25=FACE_BOUND('',#51,.T.);
#26=FACE_BOUND('',#53,.T.);
#27=FACE_BOUND('',#55,.T.);
#28=FACE_BOUND('',#56,.T.);
#29=FACE_BOUND('',#57,.T.);
#30=FACE_BOUND('',#59,.T.);
#31=FACE_BOUND('',#60,.T.);
#32=FACE_BOUND('',#61,.T.);
#33=FACE_BOUND('',#63,.T.);
#34=FACE_OUTER_BOUND('',#42,.T.);
#35=FACE_OUTER_BOUND('',#46,.T.);
#36=FACE_OUTER_BOUND('',#48,.T.);
#37=FACE_OUTER_BOUND('',#50,.T.);
#38=FACE_OUTER_BOUND('',#52,.T.);
#39=FACE_OUTER_BOUND('',#54,.T.);
#40=FACE_OUTER_BOUND('',#58,.T.);
#41=FACE_OUTER_BOUND('',#62,.T.);
#42=EDGE_LOOP('',(#97));
#43=EDGE_LOOP('',(#98));
#44=EDGE_LOOP('',(#99));
#45=EDGE_LOOP('',(#100));
#46=EDGE_LOOP('',(#101));
#47=EDGE_LOOP('',(#102));
#48=EDGE_LOOP('',(#103));
#49=EDGE_LOOP('',(#104));
#50=EDGE_LOOP('',(#105));
#51=EDGE_LOOP('',(#106));
#52=EDGE_LOOP('',(#107));
#53=EDGE_LOOP('',(#108));
#54=EDGE_LOOP('',(#109));
#55=EDGE_LOOP('',(#110));
#56=EDGE_LOOP('',(#111));
#57=EDGE_LOOP('',(#112));
#58=EDGE_LOOP('',(#113));
#59=EDGE_LOOP('',(#114));
#60=EDGE_LOOP('',(#115));
#61=EDGE_LOOP('',(#116));
#62=EDGE_LOOP('',(#117));
#63=EDGE_LOOP('',(#118));
#64=CIRCLE('',#139,19.5);
#65=CIRCLE('',#140,19.4);
#66=CIRCLE('',#142,18.1);
#67=CIRCLE('',#144,19.5);
#68=CIRCLE('',#146,18.);
#69=CIRCLE('',#148,18.);
#70=CIRCLE('',#150,36.35);
#71=CIRCLE('',#151,36.25);
#72=CIRCLE('',#153,36.35);
#73=CIRCLE('',#156,36.25);
#74=CIRCLE('',#158,20.);
#75=VERTEX_POINT('',#208);
#76=VERTEX_POINT('',#210);
#77=VERTEX_POINT('',#213);
#78=VERTEX_POINT('',#216);
#79=VERTEX_POINT('',#219);
#80=VERTEX_POINT('',#222);
#81=VERTEX_POINT('',#225);
#82=VERTEX_POINT('',#227);
#83=VERTEX_POINT('',#230);
#84=VERTEX_POINT('',#234);
#85=VERTEX_POINT('',#237);
#86=EDGE_CURVE('',#75,#75,#64,.T.);
#87=EDGE_CURVE('',#76,#76,#65,.T.);
#88=EDGE_CURVE('',#77,#77,#66,.T.);
#89=EDGE_CURVE('',#78,#78,#67,.T.);
#90=EDGE_CURVE('',#79,#79,#68,.T.);
#91=EDGE_CURVE('',#80,#80,#69,.T.);
#92=EDGE_CURVE('',#81,#81,#70,.T.);
#93=EDGE_CURVE('',#82,#82,#71,.T.);
#94=EDGE_CURVE('',#83,#83,#72,.T.);
#95=EDGE_CURVE('',#84,#84,#73,.T.);
#96=EDGE_CURVE('',#85,#85,#74,.T.);
#97=ORIENTED_EDGE('',*,*,#86,.T.);
#98=ORIENTED_EDGE('',*,*,#87,.T.);
#99=ORIENTED_EDGE('',*,*,#88,.F.);
#100=ORIENTED_EDGE('',*,*,#87,.F.);
#101=ORIENTED_EDGE('',*,*,#89,.T.);
#102=ORIENTED_EDGE('',*,*,#86,.F.);
#103=ORIENTED_EDGE('',*,*,#88,.T.);
#104=ORIENTED_EDGE('',*,*,#90,.T.);
#105=ORIENTED_EDGE('',*,*,#91,.F.);
#106=ORIENTED_EDGE('',*,*,#90,.F.);
#107=ORIENTED_EDGE('',*,*,#92,.T.);
#108=ORIENTED_EDGE('',*,*,#93,.T.);
#109=ORIENTED_EDGE('',*,*,#94,.F.);
#110=ORIENTED_EDGE('',*,*,#92,.F.);
#111=ORIENTED_EDGE('',*,*,#89,.F.);
#112=ORIENTED_EDGE('',*,*,#93,.F.);
#113=ORIENTED_EDGE('',*,*,#95,.T.);
#114=ORIENTED_EDGE('',*,*,#94,.T.);
#115=ORIENTED_EDGE('',*,*,#96,.F.);
#116=ORIENTED_EDGE('',*,*,#95,.F.);
#117=ORIENTED_EDGE('',*,*,#91,.T.);
#118=ORIENTED_EDGE('',*,*,#96,.T.);
#119=CONICAL_SURFACE('',#138,19.45,45.);
#120=CONICAL_SURFACE('',#145,18.05,45.);
#121=CONICAL_SURFACE('',#149,36.3,44.9999999999997);
#122=CONICAL_SURFACE('',#155,36.3,44.9999999999994);
#123=CONICAL_SURFACE('',#159,19.,45.);
#124=ADVANCED_FACE('',(#34,#20),#119,.T.);
#125=ADVANCED_FACE('',(#21,#22),#17,.T.);
#126=ADVANCED_FACE('',(#35,#23),#14,.T.);
#127=ADVANCED_FACE('',(#36,#24),#120,.F.);
#128=ADVANCED_FACE('',(#37,#25),#15,.F.);
#129=ADVANCED_FACE('',(#38,#26),#121,.T.);
#130=ADVANCED_FACE('',(#39,#27),#16,.T.);
#131=ADVANCED_FACE('',(#28,#29),#18,.T.);
#132=ADVANCED_FACE('',(#40,#30),#122,.T.);
#133=ADVANCED_FACE('',(#31,#32),#19,.T.);
#134=ADVANCED_FACE('',(#41,#33),#123,.F.);
#135=CLOSED_SHELL('',(#124,#125,#126,#127,#128,#129,#130,#131,#132,#133,
#134));
#136=MANIFOLD_SOLID_BREP('Volumenk\X\F6rper1',#135);
#137=AXIS2_PLACEMENT_3D('placement',#206,#160,#161);
#138=AXIS2_PLACEMENT_3D('',#207,#162,#163);
#139=AXIS2_PLACEMENT_3D('',#209,#164,#165);
#140=AXIS2_PLACEMENT_3D('',#211,#166,#167);
#141=AXIS2_PLACEMENT_3D('',#212,#168,#169);
#142=AXIS2_PLACEMENT_3D('',#214,#170,#171);
#143=AXIS2_PLACEMENT_3D('',#215,#172,#173);
#144=AXIS2_PLACEMENT_3D('',#217,#174,#175);
#145=AXIS2_PLACEMENT_3D('',#218,#176,#177);
#146=AXIS2_PLACEMENT_3D('',#220,#178,#179);
#147=AXIS2_PLACEMENT_3D('',#221,#180,#181);
#148=AXIS2_PLACEMENT_3D('',#223,#182,#183);
#149=AXIS2_PLACEMENT_3D('',#224,#184,#185);
#150=AXIS2_PLACEMENT_3D('',#226,#186,#187);
#151=AXIS2_PLACEMENT_3D('',#228,#188,#189);
#152=AXIS2_PLACEMENT_3D('',#229,#190,#191);
#153=AXIS2_PLACEMENT_3D('',#231,#192,#193);
#154=AXIS2_PLACEMENT_3D('',#232,#194,#195);
#155=AXIS2_PLACEMENT_3D('',#233,#196,#197);
#156=AXIS2_PLACEMENT_3D('',#235,#198,#199);
#157=AXIS2_PLACEMENT_3D('',#236,#200,#201);
#158=AXIS2_PLACEMENT_3D('',#238,#202,#203);
#159=AXIS2_PLACEMENT_3D('',#239,#204,#205);
#160=DIRECTION('axis',(0.,0.,1.));
#161=DIRECTION('refdir',(1.,0.,0.));
#162=DIRECTION('center_axis',(0.,0.,-1.));
#163=DIRECTION('ref_axis',(0.,-1.,0.));
#164=DIRECTION('center_axis',(0.,0.,1.));
#165=DIRECTION('ref_axis',(0.,-1.,0.));
#166=DIRECTION('center_axis',(0.,0.,-1.));
#167=DIRECTION('ref_axis',(0.,-1.,0.));
#168=DIRECTION('center_axis',(0.,0.,1.));
#169=DIRECTION('ref_axis',(1.,0.,0.));
#170=DIRECTION('center_axis',(0.,0.,1.));
#171=DIRECTION('ref_axis',(0.,-1.,0.));
#172=DIRECTION('center_axis',(0.,0.,1.));
#173=DIRECTION('ref_axis',(0.,1.,0.));
#174=DIRECTION('center_axis',(0.,0.,1.));
#175=DIRECTION('ref_axis',(0.,1.,0.));
#176=DIRECTION('center_axis',(0.,0.,1.));
#177=DIRECTION('ref_axis',(0.,-1.,0.));
#178=DIRECTION('center_axis',(0.,0.,-1.));
#179=DIRECTION('ref_axis',(0.,-1.,0.));
#180=DIRECTION('center_axis',(0.,0.,1.));
#181=DIRECTION('ref_axis',(0.,1.,0.));
#182=DIRECTION('center_axis',(0.,0.,1.));
#183=DIRECTION('ref_axis',(0.,-1.,0.));
#184=DIRECTION('center_axis',(0.,0.,-1.));
#185=DIRECTION('ref_axis',(0.,-1.,0.));
#186=DIRECTION('center_axis',(0.,0.,1.));
#187=DIRECTION('ref_axis',(0.,-1.,0.));
#188=DIRECTION('center_axis',(0.,0.,-1.));
#189=DIRECTION('ref_axis',(0.,-1.,0.));
#190=DIRECTION('center_axis',(0.,0.,1.));
#191=DIRECTION('ref_axis',(0.,1.,0.));
#192=DIRECTION('center_axis',(0.,0.,-1.));
#193=DIRECTION('ref_axis',(0.,-1.,0.));
#194=DIRECTION('center_axis',(0.,0.,1.));
#195=DIRECTION('ref_axis',(1.,0.,0.));
#196=DIRECTION('center_axis',(0.,0.,1.));
#197=DIRECTION('ref_axis',(0.,-1.,0.));
#198=DIRECTION('center_axis',(0.,0.,1.));
#199=DIRECTION('ref_axis',(0.,-1.,0.));
#200=DIRECTION('center_axis',(0.,0.,-1.));
#201=DIRECTION('ref_axis',(-1.,0.,0.));
#202=DIRECTION('center_axis',(0.,0.,-1.));
#203=DIRECTION('ref_axis',(0.,-1.,0.));
#204=DIRECTION('center_axis',(0.,0.,-1.));
#205=DIRECTION('ref_axis',(0.,-1.,0.));
#206=CARTESIAN_POINT('',(0.,0.,0.));
#207=CARTESIAN_POINT('Origin',(0.,0.,4.95));
#208=CARTESIAN_POINT('',(-2.38806125833734E-015,19.5,4.9));
#209=CARTESIAN_POINT('Origin',(0.,0.,4.9));
#210=CARTESIAN_POINT('',(2.37581479034587E-015,19.4,5.));
#211=CARTESIAN_POINT('Origin',(0.,0.,5.));
#212=CARTESIAN_POINT('Origin',(0.,18.75,5.));
#213=CARTESIAN_POINT('',(-2.21661070645671E-015,18.1,5.));
#214=CARTESIAN_POINT('Origin',(0.,0.,5.));
#215=CARTESIAN_POINT('Origin',(0.,0.,4.1));
#216=CARTESIAN_POINT('',(0.,19.5,3.2));
#217=CARTESIAN_POINT('Origin',(0.,0.,3.2));
#218=CARTESIAN_POINT('Origin',(0.,0.,4.95));
#219=CARTESIAN_POINT('',(2.20436423846524E-015,18.,4.9));
#220=CARTESIAN_POINT('Origin',(0.,0.,4.9));
#221=CARTESIAN_POINT('Origin',(0.,0.,0.250000000000002));
#222=CARTESIAN_POINT('',(-2.20436423846524E-015,18.,2.));
#223=CARTESIAN_POINT('Origin',(0.,0.,2.));
#224=CARTESIAN_POINT('Origin',(0.,0.,3.15));
#225=CARTESIAN_POINT('',(-4.45159111490063E-015,36.35,3.1));
#226=CARTESIAN_POINT('Origin',(0.,0.,3.1));
#227=CARTESIAN_POINT('',(4.43934464690916E-015,36.25,3.2));
#228=CARTESIAN_POINT('Origin',(0.,0.,3.2));
#229=CARTESIAN_POINT('Origin',(0.,0.,1.6));
#230=CARTESIAN_POINT('',(4.45159111490063E-015,36.35,0.1));
#231=CARTESIAN_POINT('Origin',(0.,0.,0.1));
#232=CARTESIAN_POINT('Origin',(0.,27.925,3.2));
#233=CARTESIAN_POINT('Origin',(0.,0.,0.05));
#234=CARTESIAN_POINT('',(-4.43934464690916E-015,36.25,0.));
#235=CARTESIAN_POINT('Origin',(0.,0.,0.));
#236=CARTESIAN_POINT('Origin',(0.,27.175,0.));
#237=CARTESIAN_POINT('',(2.44929359829471E-015,20.,0.));
#238=CARTESIAN_POINT('Origin',(0.,0.,0.));
#239=CARTESIAN_POINT('Origin',(0.,0.,1.));
#240=UNCERTAINTY_MEASURE_WITH_UNIT(LENGTH_MEASURE(0.01),#244,
'DISTANCE_ACCURACY_VALUE',
'Maximum model space distance between geometric entities at asserted c
onnectivities');
#241=UNCERTAINTY_MEASURE_WITH_UNIT(LENGTH_MEASURE(1.E-006),#244,
'DISTANCE_ACCURACY_VALUE',
'Maximum model space distance between geometric entities at asserted c
onnectivities');
#242=(
GEOMETRIC_REPRESENTATION_CONTEXT(3)
GLOBAL_UNCERTAINTY_ASSIGNED_CONTEXT((#240))
GLOBAL_UNIT_ASSIGNED_CONTEXT((#244,#247,#245))
REPRESENTATION_CONTEXT('','3D')
);
#243=(
GEOMETRIC_REPRESENTATION_CONTEXT(3)
GLOBAL_UNCERTAINTY_ASSIGNED_CONTEXT((#241))
GLOBAL_UNIT_ASSIGNED_CONTEXT((#244,#247,#245))
REPRESENTATION_CONTEXT('','3D')
);
#244=(
LENGTH_UNIT()
NAMED_UNIT(*)
SI_UNIT(.MILLI.,.METRE.)
);
#245=(
NAMED_UNIT(*)
SI_UNIT($,.STERADIAN.)
SOLID_ANGLE_UNIT()
);
#246=DIMENSIONAL_EXPONENTS(0.,0.,0.,0.,0.,0.,0.);
#247=(
CONVERSION_BASED_UNIT('degree',#249)
NAMED_UNIT(#246)
PLANE_ANGLE_UNIT()
);
#248=(
NAMED_UNIT(*)
PLANE_ANGLE_UNIT()
SI_UNIT($,.RADIAN.)
);
#249=PLANE_ANGLE_MEASURE_WITH_UNIT(PLANE_ANGLE_MEASURE(0.01745329252),#248);
#250=SHAPE_DEFINITION_REPRESENTATION(#251,#252);
#251=PRODUCT_DEFINITION_SHAPE('',$,#254);
#252=SHAPE_REPRESENTATION('',(#137),#242);
#253=PRODUCT_DEFINITION_CONTEXT('part definition',#258,'design');
#254=PRODUCT_DEFINITION('RK3652_AdapRing_M39x0_5',
'RK3652_AdapRing_M39x0_5',#255,#253);
#255=PRODUCT_DEFINITION_FORMATION('',$,#260);
#256=PRODUCT_RELATED_PRODUCT_CATEGORY('RK3652_AdapRing_M39x0_5',
'RK3652_AdapRing_M39x0_5',(#260));
#257=APPLICATION_PROTOCOL_DEFINITION('international standard',
'automotive_design',2009,#258);
#258=APPLICATION_CONTEXT(
'Core Data for Automotive Mechanical Design Process');
#259=PRODUCT_CONTEXT('part definition',#258,'mechanical');
#260=PRODUCT('RK3652_AdapRing_M39x0_5','RK3652_AdapRing_M39x0_5',$,(#259));
#261=PRESENTATION_STYLE_ASSIGNMENT((#262));
#262=SURFACE_STYLE_USAGE(.BOTH.,#263);
#263=SURFACE_SIDE_STYLE($,(#264));
#264=SURFACE_STYLE_FILL_AREA(#265);
#265=FILL_AREA_STYLE($,(#266));
#266=FILL_AREA_STYLE_COLOUR($,#267);
#267=COLOUR_RGB('',0.16078431372549,0.16078431372549,0.16078431372549);
ENDSEC;
END-ISO-10303-21;
