ISO-10303-21;
HEADER;
/* Generated by software containing ST-Developer
 * from STEP Tools, Inc. (www.steptools.com) 
 */

FILE_DESCRIPTION(
/* description */ ('Adapterring d41,3 / M30,5x0,5'),
/* implementation_level */ '2;1');

FILE_NAME(
/* name */ 
'H:\\CAD\\PROJEKTE\\208.125.000.26_RK2036_R\\PM\\web\\RK2036_AdapRing_
M30_5x0_5.stp',
/* time_stamp */ '2016-01-15T11:46:29+01:00',
/* author */ ('REGENSPURG'),
/* organization */ ('Vision & Control'),
/* preprocessor_version */ 'ST-DEVELOPER v15.2',
/* originating_system */ 'Autodesk Inventor 2014',
/* authorisation */ '');

FILE_SCHEMA (('AUTOMOTIVE_DESIGN { 1 0 10303 214 3 1 1 }'));
ENDSEC;

DATA;
#10=MECHANICAL_DESIGN_GEOMETRIC_PRESENTATION_REPRESENTATION('',(#13),#203);
#11=SHAPE_REPRESENTATION_RELATIONSHIP('SRR','None',#212,#12);
#12=ADVANCED_BREP_SHAPE_REPRESENTATION($,(#114),#202);
#13=STYLED_ITEM('',(#221),#114);
#14=PLANE('',#121);
#15=PLANE('',#125);
#16=PLANE('',#133);
#17=CYLINDRICAL_SURFACE('',#119,20.65);
#18=CYLINDRICAL_SURFACE('',#129,13.5);
#19=CYLINDRICAL_SURFACE('',#131,15.25);
#20=FACE_BOUND('',#39,.T.);
#21=FACE_BOUND('',#41,.T.);
#22=FACE_BOUND('',#42,.T.);
#23=FACE_BOUND('',#43,.T.);
#24=FACE_BOUND('',#45,.T.);
#25=FACE_BOUND('',#46,.T.);
#26=FACE_BOUND('',#47,.T.);
#27=FACE_BOUND('',#49,.T.);
#28=FACE_BOUND('',#51,.T.);
#29=FACE_BOUND('',#53,.T.);
#30=FACE_BOUND('',#54,.T.);
#31=FACE_BOUND('',#55,.T.);
#32=FACE_OUTER_BOUND('',#38,.T.);
#33=FACE_OUTER_BOUND('',#40,.T.);
#34=FACE_OUTER_BOUND('',#44,.T.);
#35=FACE_OUTER_BOUND('',#48,.T.);
#36=FACE_OUTER_BOUND('',#50,.T.);
#37=FACE_OUTER_BOUND('',#52,.T.);
#38=EDGE_LOOP('',(#83));
#39=EDGE_LOOP('',(#84));
#40=EDGE_LOOP('',(#85));
#41=EDGE_LOOP('',(#86));
#42=EDGE_LOOP('',(#87));
#43=EDGE_LOOP('',(#88));
#44=EDGE_LOOP('',(#89));
#45=EDGE_LOOP('',(#90));
#46=EDGE_LOOP('',(#91));
#47=EDGE_LOOP('',(#92));
#48=EDGE_LOOP('',(#93));
#49=EDGE_LOOP('',(#94));
#50=EDGE_LOOP('',(#95));
#51=EDGE_LOOP('',(#96));
#52=EDGE_LOOP('',(#97));
#53=EDGE_LOOP('',(#98));
#54=EDGE_LOOP('',(#99));
#55=EDGE_LOOP('',(#100));
#56=CIRCLE('',#117,20.65);
#57=CIRCLE('',#118,20.55);
#58=CIRCLE('',#120,20.65);
#59=CIRCLE('',#122,15.25);
#60=CIRCLE('',#124,20.55);
#61=CIRCLE('',#126,16.);
#62=CIRCLE('',#128,13.5);
#63=CIRCLE('',#130,13.5);
#64=CIRCLE('',#132,15.25);
#65=VERTEX_POINT('',#174);
#66=VERTEX_POINT('',#176);
#67=VERTEX_POINT('',#179);
#68=VERTEX_POINT('',#182);
#69=VERTEX_POINT('',#185);
#70=VERTEX_POINT('',#188);
#71=VERTEX_POINT('',#191);
#72=VERTEX_POINT('',#194);
#73=VERTEX_POINT('',#197);
#74=EDGE_CURVE('',#65,#65,#56,.T.);
#75=EDGE_CURVE('',#66,#66,#57,.T.);
#76=EDGE_CURVE('',#67,#67,#58,.T.);
#77=EDGE_CURVE('',#68,#68,#59,.T.);
#78=EDGE_CURVE('',#69,#69,#60,.T.);
#79=EDGE_CURVE('',#70,#70,#61,.T.);
#80=EDGE_CURVE('',#71,#71,#62,.T.);
#81=EDGE_CURVE('',#72,#72,#63,.T.);
#82=EDGE_CURVE('',#73,#73,#64,.T.);
#83=ORIENTED_EDGE('',*,*,#74,.T.);
#84=ORIENTED_EDGE('',*,*,#75,.T.);
#85=ORIENTED_EDGE('',*,*,#76,.F.);
#86=ORIENTED_EDGE('',*,*,#74,.F.);
#87=ORIENTED_EDGE('',*,*,#77,.F.);
#88=ORIENTED_EDGE('',*,*,#75,.F.);
#89=ORIENTED_EDGE('',*,*,#78,.T.);
#90=ORIENTED_EDGE('',*,*,#76,.T.);
#91=ORIENTED_EDGE('',*,*,#79,.F.);
#92=ORIENTED_EDGE('',*,*,#78,.F.);
#93=ORIENTED_EDGE('',*,*,#80,.T.);
#94=ORIENTED_EDGE('',*,*,#79,.T.);
#95=ORIENTED_EDGE('',*,*,#81,.T.);
#96=ORIENTED_EDGE('',*,*,#80,.F.);
#97=ORIENTED_EDGE('',*,*,#82,.F.);
#98=ORIENTED_EDGE('',*,*,#77,.T.);
#99=ORIENTED_EDGE('',*,*,#81,.F.);
#100=ORIENTED_EDGE('',*,*,#82,.T.);
#101=CONICAL_SURFACE('',#116,20.6,44.9999999999994);
#102=CONICAL_SURFACE('',#123,20.6,44.9999999999994);
#103=CONICAL_SURFACE('',#127,14.75,45.);
#104=ADVANCED_FACE('',(#32,#20),#101,.T.);
#105=ADVANCED_FACE('',(#33,#21),#17,.T.);
#106=ADVANCED_FACE('',(#22,#23),#14,.T.);
#107=ADVANCED_FACE('',(#34,#24),#102,.T.);
#108=ADVANCED_FACE('',(#25,#26),#15,.T.);
#109=ADVANCED_FACE('',(#35,#27),#103,.F.);
#110=ADVANCED_FACE('',(#36,#28),#18,.F.);
#111=ADVANCED_FACE('',(#37,#29),#19,.T.);
#112=ADVANCED_FACE('',(#30,#31),#16,.T.);
#113=CLOSED_SHELL('',(#104,#105,#106,#107,#108,#109,#110,#111,#112));
#114=MANIFOLD_SOLID_BREP('Volumenk\X\F6rper1',#113);
#115=AXIS2_PLACEMENT_3D('placement',#172,#134,#135);
#116=AXIS2_PLACEMENT_3D('',#173,#136,#137);
#117=AXIS2_PLACEMENT_3D('',#175,#138,#139);
#118=AXIS2_PLACEMENT_3D('',#177,#140,#141);
#119=AXIS2_PLACEMENT_3D('',#178,#142,#143);
#120=AXIS2_PLACEMENT_3D('',#180,#144,#145);
#121=AXIS2_PLACEMENT_3D('',#181,#146,#147);
#122=AXIS2_PLACEMENT_3D('',#183,#148,#149);
#123=AXIS2_PLACEMENT_3D('',#184,#150,#151);
#124=AXIS2_PLACEMENT_3D('',#186,#152,#153);
#125=AXIS2_PLACEMENT_3D('',#187,#154,#155);
#126=AXIS2_PLACEMENT_3D('',#189,#156,#157);
#127=AXIS2_PLACEMENT_3D('',#190,#158,#159);
#128=AXIS2_PLACEMENT_3D('',#192,#160,#161);
#129=AXIS2_PLACEMENT_3D('',#193,#162,#163);
#130=AXIS2_PLACEMENT_3D('',#195,#164,#165);
#131=AXIS2_PLACEMENT_3D('',#196,#166,#167);
#132=AXIS2_PLACEMENT_3D('',#198,#168,#169);
#133=AXIS2_PLACEMENT_3D('',#199,#170,#171);
#134=DIRECTION('axis',(0.,0.,1.));
#135=DIRECTION('refdir',(1.,0.,0.));
#136=DIRECTION('center_axis',(0.,0.,-1.));
#137=DIRECTION('ref_axis',(0.,-1.,0.));
#138=DIRECTION('center_axis',(0.,0.,1.));
#139=DIRECTION('ref_axis',(0.,-1.,0.));
#140=DIRECTION('center_axis',(0.,0.,-1.));
#141=DIRECTION('ref_axis',(0.,-1.,0.));
#142=DIRECTION('center_axis',(0.,0.,1.));
#143=DIRECTION('ref_axis',(0.,1.,0.));
#144=DIRECTION('center_axis',(0.,0.,-1.));
#145=DIRECTION('ref_axis',(0.,-1.,0.));
#146=DIRECTION('center_axis',(0.,0.,1.));
#147=DIRECTION('ref_axis',(1.,0.,0.));
#148=DIRECTION('center_axis',(0.,0.,1.));
#149=DIRECTION('ref_axis',(0.,1.,0.));
#150=DIRECTION('center_axis',(0.,0.,1.));
#151=DIRECTION('ref_axis',(0.,-1.,0.));
#152=DIRECTION('center_axis',(0.,0.,1.));
#153=DIRECTION('ref_axis',(0.,-1.,0.));
#154=DIRECTION('center_axis',(0.,0.,-1.));
#155=DIRECTION('ref_axis',(-1.,0.,0.));
#156=DIRECTION('center_axis',(0.,0.,-1.));
#157=DIRECTION('ref_axis',(0.,-1.,0.));
#158=DIRECTION('center_axis',(0.,0.,-1.));
#159=DIRECTION('ref_axis',(0.,-1.,0.));
#160=DIRECTION('center_axis',(0.,0.,1.));
#161=DIRECTION('ref_axis',(0.,-1.,0.));
#162=DIRECTION('center_axis',(0.,0.,1.));
#163=DIRECTION('ref_axis',(0.,1.,0.));
#164=DIRECTION('center_axis',(0.,0.,1.));
#165=DIRECTION('ref_axis',(0.,1.,0.));
#166=DIRECTION('center_axis',(0.,0.,1.));
#167=DIRECTION('ref_axis',(0.,1.,0.));
#168=DIRECTION('center_axis',(0.,0.,1.));
#169=DIRECTION('ref_axis',(0.,1.,0.));
#170=DIRECTION('center_axis',(0.,0.,1.));
#171=DIRECTION('ref_axis',(1.,0.,0.));
#172=CARTESIAN_POINT('',(0.,0.,0.));
#173=CARTESIAN_POINT('Origin',(0.,0.,3.15));
#174=CARTESIAN_POINT('',(-2.52889564023928E-015,20.65,3.1));
#175=CARTESIAN_POINT('Origin',(0.,0.,3.1));
#176=CARTESIAN_POINT('',(2.51664917224781E-015,20.55,3.2));
#177=CARTESIAN_POINT('Origin',(0.,0.,3.2));
#178=CARTESIAN_POINT('Origin',(0.,0.,1.6));
#179=CARTESIAN_POINT('',(2.52889564023928E-015,20.65,0.1));
#180=CARTESIAN_POINT('Origin',(0.,0.,0.1));
#181=CARTESIAN_POINT('Origin',(0.,17.95,3.2));
#182=CARTESIAN_POINT('',(0.,15.25,3.2));
#183=CARTESIAN_POINT('Origin',(0.,0.,3.2));
#184=CARTESIAN_POINT('Origin',(0.,0.,0.05));
#185=CARTESIAN_POINT('',(-2.51664917224781E-015,20.55,0.));
#186=CARTESIAN_POINT('Origin',(0.,0.,0.));
#187=CARTESIAN_POINT('Origin',(0.,17.075,0.));
#188=CARTESIAN_POINT('',(1.95943487863577E-015,16.,0.));
#189=CARTESIAN_POINT('Origin',(0.,0.,0.));
#190=CARTESIAN_POINT('Origin',(0.,0.,1.25));
#191=CARTESIAN_POINT('',(-1.65327317884893E-015,13.5,2.5));
#192=CARTESIAN_POINT('Origin',(0.,0.,2.5));
#193=CARTESIAN_POINT('Origin',(0.,0.,2.));
#194=CARTESIAN_POINT('',(0.,13.5,6.));
#195=CARTESIAN_POINT('Origin',(0.,0.,6.));
#196=CARTESIAN_POINT('Origin',(0.,0.,4.6));
#197=CARTESIAN_POINT('',(0.,15.25,6.));
#198=CARTESIAN_POINT('Origin',(0.,0.,6.));
#199=CARTESIAN_POINT('Origin',(0.,14.375,6.));
#200=UNCERTAINTY_MEASURE_WITH_UNIT(LENGTH_MEASURE(0.01),#204,
'DISTANCE_ACCURACY_VALUE',
'Maximum model space distance between geometric entities at asserted c
onnectivities');
#201=UNCERTAINTY_MEASURE_WITH_UNIT(LENGTH_MEASURE(1.E-006),#204,
'DISTANCE_ACCURACY_VALUE',
'Maximum model space distance between geometric entities at asserted c
onnectivities');
#202=(
GEOMETRIC_REPRESENTATION_CONTEXT(3)
GLOBAL_UNCERTAINTY_ASSIGNED_CONTEXT((#200))
GLOBAL_UNIT_ASSIGNED_CONTEXT((#204,#207,#205))
REPRESENTATION_CONTEXT('','3D')
);
#203=(
GEOMETRIC_REPRESENTATION_CONTEXT(3)
GLOBAL_UNCERTAINTY_ASSIGNED_CONTEXT((#201))
GLOBAL_UNIT_ASSIGNED_CONTEXT((#204,#207,#205))
REPRESENTATION_CONTEXT('','3D')
);
#204=(
LENGTH_UNIT()
NAMED_UNIT(*)
SI_UNIT(.MILLI.,.METRE.)
);
#205=(
NAMED_UNIT(*)
SI_UNIT($,.STERADIAN.)
SOLID_ANGLE_UNIT()
);
#206=DIMENSIONAL_EXPONENTS(0.,0.,0.,0.,0.,0.,0.);
#207=(
CONVERSION_BASED_UNIT('degree',#209)
NAMED_UNIT(#206)
PLANE_ANGLE_UNIT()
);
#208=(
NAMED_UNIT(*)
PLANE_ANGLE_UNIT()
SI_UNIT($,.RADIAN.)
);
#209=PLANE_ANGLE_MEASURE_WITH_UNIT(PLANE_ANGLE_MEASURE(0.01745329252),#208);
#210=SHAPE_DEFINITION_REPRESENTATION(#211,#212);
#211=PRODUCT_DEFINITION_SHAPE('',$,#214);
#212=SHAPE_REPRESENTATION('',(#115),#202);
#213=PRODUCT_DEFINITION_CONTEXT('part definition',#218,'design');
#214=PRODUCT_DEFINITION('208.125.070.10_Adapterring_M27x05',
'208.125.070.10_Adapterring_M27x05',#215,#213);
#215=PRODUCT_DEFINITION_FORMATION('',$,#220);
#216=PRODUCT_RELATED_PRODUCT_CATEGORY(
'208.125.070.10_Adapterring_M27x05','208.125.070.10_Adapterring_M27x05',
(#220));
#217=APPLICATION_PROTOCOL_DEFINITION('international standard',
'automotive_design',2009,#218);
#218=APPLICATION_CONTEXT(
'Core Data for Automotive Mechanical Design Process');
#219=PRODUCT_CONTEXT('part definition',#218,'mechanical');
#220=PRODUCT('208.125.070.10_Adapterring_M27x05',
'208.125.070.10_Adapterring_M27x05',$,(#219));
#221=PRESENTATION_STYLE_ASSIGNMENT((#222));
#222=SURFACE_STYLE_USAGE(.BOTH.,#223);
#223=SURFACE_SIDE_STYLE($,(#224));
#224=SURFACE_STYLE_FILL_AREA(#225);
#225=FILL_AREA_STYLE($,(#226));
#226=FILL_AREA_STYLE_COLOUR($,#227);
#227=COLOUR_RGB('',0.16078431372549,0.16078431372549,0.16078431372549);
ENDSEC;
END-ISO-10303-21;
ISO-10303-21;
HEADER;
/* Generated by software containing ST-Developer
 * from STEP Tools, Inc. (www.steptools.com) 
 */

FILE_DESCRIPTION(
/* description */ ('Adapterring d41,3 / M30,5x0,5'),
/* implementation_level */ '2;1');

FILE_NAME(
/* name */ 
'H:\\CAD\\PROJEKTE\\208.125.000.26_RK2036_R\\PM\\web\\RK2036_AdapRing_
M30_5x0_5.stp',
/* time_stamp */ '2016-01-15T11:46:29+01:00',
/* author */ ('REGENSPURG'),
/* organization */ ('Vision & Control'),
/* preprocessor_version */ 'ST-DEVELOPER v15.2',
/* originating_system */ 'Autodesk Inventor 2014',
/* authorisation */ '');

FILE_SCHEMA (('AUTOMOTIVE_DESIGN { 1 0 10303 214 3 1 1 }'));
ENDSEC;

DATA;
#10=MECHANICAL_DESIGN_GEOMETRIC_PRESENTATION_REPRESENTATION('',(#13),#203);
#11=SHAPE_REPRESENTATION_RELATIONSHIP('SRR','None',#212,#12);
#12=ADVANCED_BREP_SHAPE_REPRESENTATION($,(#114),#202);
#13=STYLED_ITEM('',(#221),#114);
#14=PLANE('',#121);
#15=PLANE('',#125);
#16=PLANE('',#133);
#17=CYLINDRICAL_SURFACE('',#119,20.65);
#18=CYLINDRICAL_SURFACE('',#129,13.5);
#19=CYLINDRICAL_SURFACE('',#131,15.25);
#20=FACE_BOUND('',#39,.T.);
#21=FACE_BOUND('',#41,.T.);
#22=FACE_BOUND('',#42,.T.);
#23=FACE_BOUND('',#43,.T.);
#24=FACE_BOUND('',#45,.T.);
#25=FACE_BOUND('',#46,.T.);
#26=FACE_BOUND('',#47,.T.);
#27=FACE_BOUND('',#49,.T.);
#28=FACE_BOUND('',#51,.T.);
#29=FACE_BOUND('',#53,.T.);
#30=FACE_BOUND('',#54,.T.);
#31=FACE_BOUND('',#55,.T.);
#32=FACE_OUTER_BOUND('',#38,.T.);
#33=FACE_OUTER_BOUND('',#40,.T.);
#34=FACE_OUTER_BOUND('',#44,.T.);
#35=FACE_OUTER_BOUND('',#48,.T.);
#36=FACE_OUTER_BOUND('',#50,.T.);
#37=FACE_OUTER_BOUND('',#52,.T.);
#38=EDGE_LOOP('',(#83));
#39=EDGE_LOOP('',(#84));
#40=EDGE_LOOP('',(#85));
#41=EDGE_LOOP('',(#86));
#42=EDGE_LOOP('',(#87));
#43=EDGE_LOOP('',(#88));
#44=EDGE_LOOP('',(#89));
#45=EDGE_LOOP('',(#90));
#46=EDGE_LOOP('',(#91));
#47=EDGE_LOOP('',(#92));
#48=EDGE_LOOP('',(#93));
#49=EDGE_LOOP('',(#94));
#50=EDGE_LOOP('',(#95));
#51=EDGE_LOOP('',(#96));
#52=EDGE_LOOP('',(#97));
#53=EDGE_LOOP('',(#98));
#54=EDGE_LOOP('',(#99));
#55=EDGE_LOOP('',(#100));
#56=CIRCLE('',#117,20.65);
#57=CIRCLE('',#118,20.55);
#58=CIRCLE('',#120,20.65);
#59=CIRCLE('',#122,15.25);
#60=CIRCLE('',#124,20.55);
#61=CIRCLE('',#126,16.);
#62=CIRCLE('',#128,13.5);
#63=CIRCLE('',#130,13.5);
#64=CIRCLE('',#132,15.25);
#65=VERTEX_POINT('',#174);
#66=VERTEX_POINT('',#176);
#67=VERTEX_POINT('',#179);
#68=VERTEX_POINT('',#182);
#69=VERTEX_POINT('',#185);
#70=VERTEX_POINT('',#188);
#71=VERTEX_POINT('',#191);
#72=VERTEX_POINT('',#194);
#73=VERTEX_POINT('',#197);
#74=EDGE_CURVE('',#65,#65,#56,.T.);
#75=EDGE_CURVE('',#66,#66,#57,.T.);
#76=EDGE_CURVE('',#67,#67,#58,.T.);
#77=EDGE_CURVE('',#68,#68,#59,.T.);
#78=EDGE_CURVE('',#69,#69,#60,.T.);
#79=EDGE_CURVE('',#70,#70,#61,.T.);
#80=EDGE_CURVE('',#71,#71,#62,.T.);
#81=EDGE_CURVE('',#72,#72,#63,.T.);
#82=EDGE_CURVE('',#73,#73,#64,.T.);
#83=ORIENTED_EDGE('',*,*,#74,.T.);
#84=ORIENTED_EDGE('',*,*,#75,.T.);
#85=ORIENTED_EDGE('',*,*,#76,.F.);
#86=ORIENTED_EDGE('',*,*,#74,.F.);
#87=ORIENTED_EDGE('',*,*,#77,.F.);
#88=ORIENTED_EDGE('',*,*,#75,.F.);
#89=ORIENTED_EDGE('',*,*,#78,.T.);
#90=ORIENTED_EDGE('',*,*,#76,.T.);
#91=ORIENTED_EDGE('',*,*,#79,.F.);
#92=ORIENTED_EDGE('',*,*,#78,.F.);
#93=ORIENTED_EDGE('',*,*,#80,.T.);
#94=ORIENTED_EDGE('',*,*,#79,.T.);
#95=ORIENTED_EDGE('',*,*,#81,.T.);
#96=ORIENTED_EDGE('',*,*,#80,.F.);
#97=ORIENTED_EDGE('',*,*,#82,.F.);
#98=ORIENTED_EDGE('',*,*,#77,.T.);
#99=ORIENTED_EDGE('',*,*,#81,.F.);
#100=ORIENTED_EDGE('',*,*,#82,.T.);
#101=CONICAL_SURFACE('',#116,20.6,44.9999999999994);
#102=CONICAL_SURFACE('',#123,20.6,44.9999999999994);
#103=CONICAL_SURFACE('',#127,14.75,45.);
#104=ADVANCED_FACE('',(#32,#20),#101,.T.);
#105=ADVANCED_FACE('',(#33,#21),#17,.T.);
#106=ADVANCED_FACE('',(#22,#23),#14,.T.);
#107=ADVANCED_FACE('',(#34,#24),#102,.T.);
#108=ADVANCED_FACE('',(#25,#26),#15,.T.);
#109=ADVANCED_FACE('',(#35,#27),#103,.F.);
#110=ADVANCED_FACE('',(#36,#28),#18,.F.);
#111=ADVANCED_FACE('',(#37,#29),#19,.T.);
#112=ADVANCED_FACE('',(#30,#31),#16,.T.);
#113=CLOSED_SHELL('',(#104,#105,#106,#107,#108,#109,#110,#111,#112));
#114=MANIFOLD_SOLID_BREP('Volumenk\X\F6rper1',#113);
#115=AXIS2_PLACEMENT_3D('placement',#172,#134,#135);
#116=AXIS2_PLACEMENT_3D('',#173,#136,#137);
#117=AXIS2_PLACEMENT_3D('',#175,#138,#139);
#118=AXIS2_PLACEMENT_3D('',#177,#140,#141);
#119=AXIS2_PLACEMENT_3D('',#178,#142,#143);
#120=AXIS2_PLACEMENT_3D('',#180,#144,#145);
#121=AXIS2_PLACEMENT_3D('',#181,#146,#147);
#122=AXIS2_PLACEMENT_3D('',#183,#148,#149);
#123=AXIS2_PLACEMENT_3D('',#184,#150,#151);
#124=AXIS2_PLACEMENT_3D('',#186,#152,#153);
#125=AXIS2_PLACEMENT_3D('',#187,#154,#155);
#126=AXIS2_PLACEMENT_3D('',#189,#156,#157);
#127=AXIS2_PLACEMENT_3D('',#190,#158,#159);
#128=AXIS2_PLACEMENT_3D('',#192,#160,#161);
#129=AXIS2_PLACEMENT_3D('',#193,#162,#163);
#130=AXIS2_PLACEMENT_3D('',#195,#164,#165);
#131=AXIS2_PLACEMENT_3D('',#196,#166,#167);
#132=AXIS2_PLACEMENT_3D('',#198,#168,#169);
#133=AXIS2_PLACEMENT_3D('',#199,#170,#171);
#134=DIRECTION('axis',(0.,0.,1.));
#135=DIRECTION('refdir',(1.,0.,0.));
#136=DIRECTION('center_axis',(0.,0.,-1.));
#137=DIRECTION('ref_axis',(0.,-1.,0.));
#138=DIRECTION('center_axis',(0.,0.,1.));
#139=DIRECTION('ref_axis',(0.,-1.,0.));
#140=DIRECTION('center_axis',(0.,0.,-1.));
#141=DIRECTION('ref_axis',(0.,-1.,0.));
#142=DIRECTION('center_axis',(0.,0.,1.));
#143=DIRECTION('ref_axis',(0.,1.,0.));
#144=DIRECTION('center_axis',(0.,0.,-1.));
#145=DIRECTION('ref_axis',(0.,-1.,0.));
#146=DIRECTION('center_axis',(0.,0.,1.));
#147=DIRECTION('ref_axis',(1.,0.,0.));
#148=DIRECTION('center_axis',(0.,0.,1.));
#149=DIRECTION('ref_axis',(0.,1.,0.));
#150=DIRECTION('center_axis',(0.,0.,1.));
#151=DIRECTION('ref_axis',(0.,-1.,0.));
#152=DIRECTION('center_axis',(0.,0.,1.));
#153=DIRECTION('ref_axis',(0.,-1.,0.));
#154=DIRECTION('center_axis',(0.,0.,-1.));
#155=DIRECTION('ref_axis',(-1.,0.,0.));
#156=DIRECTION('center_axis',(0.,0.,-1.));
#157=DIRECTION('ref_axis',(0.,-1.,0.));
#158=DIRECTION('center_axis',(0.,0.,-1.));
#159=DIRECTION('ref_axis',(0.,-1.,0.));
#160=DIRECTION('center_axis',(0.,0.,1.));
#161=DIRECTION('ref_axis',(0.,-1.,0.));
#162=DIRECTION('center_axis',(0.,0.,1.));
#163=DIRECTION('ref_axis',(0.,1.,0.));
#164=DIRECTION('center_axis',(0.,0.,1.));
#165=DIRECTION('ref_axis',(0.,1.,0.));
#166=DIRECTION('center_axis',(0.,0.,1.));
#167=DIRECTION('ref_axis',(0.,1.,0.));
#168=DIRECTION('center_axis',(0.,0.,1.));
#169=DIRECTION('ref_axis',(0.,1.,0.));
#170=DIRECTION('center_axis',(0.,0.,1.));
#171=DIRECTION('ref_axis',(1.,0.,0.));
#172=CARTESIAN_POINT('',(0.,0.,0.));
#173=CARTESIAN_POINT('Origin',(0.,0.,3.15));
#174=CARTESIAN_POINT('',(-2.52889564023928E-015,20.65,3.1));
#175=CARTESIAN_POINT('Origin',(0.,0.,3.1));
#176=CARTESIAN_POINT('',(2.51664917224781E-015,20.55,3.2));
#177=CARTESIAN_POINT('Origin',(0.,0.,3.2));
#178=CARTESIAN_POINT('Origin',(0.,0.,1.6));
#179=CARTESIAN_POINT('',(2.52889564023928E-015,20.65,0.1));
#180=CARTESIAN_POINT('Origin',(0.,0.,0.1));
#181=CARTESIAN_POINT('Origin',(0.,17.95,3.2));
#182=CARTESIAN_POINT('',(0.,15.25,3.2));
#183=CARTESIAN_POINT('Origin',(0.,0.,3.2));
#184=CARTESIAN_POINT('Origin',(0.,0.,0.05));
#185=CARTESIAN_POINT('',(-2.51664917224781E-015,20.55,0.));
#186=CARTESIAN_POINT('Origin',(0.,0.,0.));
#187=CARTESIAN_POINT('Origin',(0.,17.075,0.));
#188=CARTESIAN_POINT('',(1.95943487863577E-015,16.,0.));
#189=CARTESIAN_POINT('Origin',(0.,0.,0.));
#190=CARTESIAN_POINT('Origin',(0.,0.,1.25));
#191=CARTESIAN_POINT('',(-1.65327317884893E-015,13.5,2.5));
#192=CARTESIAN_POINT('Origin',(0.,0.,2.5));
#193=CARTESIAN_POINT('Origin',(0.,0.,2.));
#194=CARTESIAN_POINT('',(0.,13.5,6.));
#195=CARTESIAN_POINT('Origin',(0.,0.,6.));
#196=CARTESIAN_POINT('Origin',(0.,0.,4.6));
#197=CARTESIAN_POINT('',(0.,15.25,6.));
#198=CARTESIAN_POINT('Origin',(0.,0.,6.));
#199=CARTESIAN_POINT('Origin',(0.,14.375,6.));
#200=UNCERTAINTY_MEASURE_WITH_UNIT(LENGTH_MEASURE(0.01),#204,
'DISTANCE_ACCURACY_VALUE',
'Maximum model space distance between geometric entities at asserted c
onnectivities');
#201=UNCERTAINTY_MEASURE_WITH_UNIT(LENGTH_MEASURE(1.E-006),#204,
'DISTANCE_ACCURACY_VALUE',
'Maximum model space distance between geometric entities at asserted c
onnectivities');
#202=(
GEOMETRIC_REPRESENTATION_CONTEXT(3)
GLOBAL_UNCERTAINTY_ASSIGNED_CONTEXT((#200))
GLOBAL_UNIT_ASSIGNED_CONTEXT((#204,#207,#205))
REPRESENTATION_CONTEXT('','3D')
);
#203=(
GEOMETRIC_REPRESENTATION_CONTEXT(3)
GLOBAL_UNCERTAINTY_ASSIGNED_CONTEXT((#201))
GLOBAL_UNIT_ASSIGNED_CONTEXT((#204,#207,#205))
REPRESENTATION_CONTEXT('','3D')
);
#204=(
LENGTH_UNIT()
NAMED_UNIT(*)
SI_UNIT(.MILLI.,.METRE.)
);
#205=(
NAMED_UNIT(*)
SI_UNIT($,.STERADIAN.)
SOLID_ANGLE_UNIT()
);
#206=DIMENSIONAL_EXPONENTS(0.,0.,0.,0.,0.,0.,0.);
#207=(
CONVERSION_BASED_UNIT('degree',#209)
NAMED_UNIT(#206)
PLANE_ANGLE_UNIT()
);
#208=(
NAMED_UNIT(*)
PLANE_ANGLE_UNIT()
SI_UNIT($,.RADIAN.)
);
#209=PLANE_ANGLE_MEASURE_WITH_UNIT(PLANE_ANGLE_MEASURE(0.01745329252),#208);
#210=SHAPE_DEFINITION_REPRESENTATION(#211,#212);
#211=PRODUCT_DEFINITION_SHAPE('',$,#214);
#212=SHAPE_REPRESENTATION('',(#115),#202);
#213=PRODUCT_DEFINITION_CONTEXT('part definition',#218,'design');
#214=PRODUCT_DEFINITION('208.125.070.10_Adapterring_M27x05',
'208.125.070.10_Adapterring_M27x05',#215,#213);
#215=PRODUCT_DEFINITION_FORMATION('',$,#220);
#216=PRODUCT_RELATED_PRODUCT_CATEGORY(
'208.125.070.10_Adapterring_M27x05','208.125.070.10_Adapterring_M27x05',
(#220));
#217=APPLICATION_PROTOCOL_DEFINITION('international standard',
'automotive_design',2009,#218);
#218=APPLICATION_CONTEXT(
'Core Data for Automotive Mechanical Design Process');
#219=PRODUCT_CONTEXT('part definition',#218,'mechanical');
#220=PRODUCT('208.125.070.10_Adapterring_M27x05',
'208.125.070.10_Adapterring_M27x05',$,(#219));
#221=PRESENTATION_STYLE_ASSIGNMENT((#222));
#222=SURFACE_STYLE_USAGE(.BOTH.,#223);
#223=SURFACE_SIDE_STYLE($,(#224));
#224=SURFACE_STYLE_FILL_AREA(#225);
#225=FILL_AREA_STYLE($,(#226));
#226=FILL_AREA_STYLE_COLOUR($,#227);
#227=COLOUR_RGB('',0.16078431372549,0.16078431372549,0.16078431372549);
ENDSEC;
END-ISO-10303-21;
