ISO-10303-21;
HEADER;
/* Generated by software containing ST-Developer
 * from STEP Tools, Inc. (www.steptools.com) 
 */

FILE_DESCRIPTION(
/* description */ ('Adapterring d41,3 / M27x0,5'),
/* implementation_level */ '2;1');

FILE_NAME(
/* name */ 
'H:\\CAD\\PROJEKTE\\208.125.000.26_RK2036_R\\PM\\web\\RK2036_AdapRing_
M27x0_5.stp',
/* time_stamp */ '2016-01-15T11:49:06+01:00',
/* author */ ('REGENSPURG'),
/* organization */ ('Vision & Control'),
/* preprocessor_version */ 'ST-DEVELOPER v15.2',
/* originating_system */ 'Autodesk Inventor 2014',
/* authorisation */ '');

FILE_SCHEMA (('AUTOMOTIVE_DESIGN { 1 0 10303 214 3 1 1 }'));
ENDSEC;

DATA;
#10=MECHANICAL_DESIGN_GEOMETRIC_PRESENTATION_REPRESENTATION('',(#13),#223);
#11=SHAPE_REPRESENTATION_RELATIONSHIP('SRR','None',#232,#12);
#12=ADVANCED_BREP_SHAPE_REPRESENTATION($,(#125),#222);
#13=STYLED_ITEM('',(#241),#125);
#14=PLANE('',#132);
#15=PLANE('',#139);
#16=PLANE('',#143);
#17=CYLINDRICAL_SURFACE('',#130,12.);
#18=CYLINDRICAL_SURFACE('',#137,20.65);
#19=CYLINDRICAL_SURFACE('',#146,13.5);
#20=FACE_BOUND('',#41,.T.);
#21=FACE_BOUND('',#43,.T.);
#22=FACE_BOUND('',#45,.T.);
#23=FACE_BOUND('',#47,.T.);
#24=FACE_BOUND('',#49,.T.);
#25=FACE_BOUND('',#50,.T.);
#26=FACE_BOUND('',#51,.T.);
#27=FACE_BOUND('',#53,.T.);
#28=FACE_BOUND('',#54,.T.);
#29=FACE_BOUND('',#55,.T.);
#30=FACE_BOUND('',#57,.T.);
#31=FACE_BOUND('',#59,.T.);
#32=FACE_OUTER_BOUND('',#40,.T.);
#33=FACE_OUTER_BOUND('',#42,.T.);
#34=FACE_OUTER_BOUND('',#44,.T.);
#35=FACE_OUTER_BOUND('',#46,.T.);
#36=FACE_OUTER_BOUND('',#48,.T.);
#37=FACE_OUTER_BOUND('',#52,.T.);
#38=FACE_OUTER_BOUND('',#56,.T.);
#39=FACE_OUTER_BOUND('',#58,.T.);
#40=EDGE_LOOP('',(#90));
#41=EDGE_LOOP('',(#91));
#42=EDGE_LOOP('',(#92));
#43=EDGE_LOOP('',(#93));
#44=EDGE_LOOP('',(#94));
#45=EDGE_LOOP('',(#95));
#46=EDGE_LOOP('',(#96));
#47=EDGE_LOOP('',(#97));
#48=EDGE_LOOP('',(#98));
#49=EDGE_LOOP('',(#99));
#50=EDGE_LOOP('',(#100));
#51=EDGE_LOOP('',(#101));
#52=EDGE_LOOP('',(#102));
#53=EDGE_LOOP('',(#103));
#54=EDGE_LOOP('',(#104));
#55=EDGE_LOOP('',(#105));
#56=EDGE_LOOP('',(#106));
#57=EDGE_LOOP('',(#107));
#58=EDGE_LOOP('',(#108));
#59=EDGE_LOOP('',(#109));
#60=CIRCLE('',#128,12.1);
#61=CIRCLE('',#129,12.);
#62=CIRCLE('',#131,12.);
#63=CIRCLE('',#133,13.5);
#64=CIRCLE('',#135,20.65);
#65=CIRCLE('',#136,20.55);
#66=CIRCLE('',#138,20.65);
#67=CIRCLE('',#140,13.5);
#68=CIRCLE('',#142,20.55);
#69=CIRCLE('',#144,14.5);
#70=VERTEX_POINT('',#191);
#71=VERTEX_POINT('',#193);
#72=VERTEX_POINT('',#196);
#73=VERTEX_POINT('',#199);
#74=VERTEX_POINT('',#202);
#75=VERTEX_POINT('',#204);
#76=VERTEX_POINT('',#207);
#77=VERTEX_POINT('',#210);
#78=VERTEX_POINT('',#213);
#79=VERTEX_POINT('',#216);
#80=EDGE_CURVE('',#70,#70,#60,.T.);
#81=EDGE_CURVE('',#71,#71,#61,.T.);
#82=EDGE_CURVE('',#72,#72,#62,.T.);
#83=EDGE_CURVE('',#73,#73,#63,.T.);
#84=EDGE_CURVE('',#74,#74,#64,.T.);
#85=EDGE_CURVE('',#75,#75,#65,.T.);
#86=EDGE_CURVE('',#76,#76,#66,.T.);
#87=EDGE_CURVE('',#77,#77,#67,.T.);
#88=EDGE_CURVE('',#78,#78,#68,.T.);
#89=EDGE_CURVE('',#79,#79,#69,.T.);
#90=ORIENTED_EDGE('',*,*,#80,.T.);
#91=ORIENTED_EDGE('',*,*,#81,.T.);
#92=ORIENTED_EDGE('',*,*,#82,.F.);
#93=ORIENTED_EDGE('',*,*,#81,.F.);
#94=ORIENTED_EDGE('',*,*,#83,.T.);
#95=ORIENTED_EDGE('',*,*,#80,.F.);
#96=ORIENTED_EDGE('',*,*,#84,.T.);
#97=ORIENTED_EDGE('',*,*,#85,.T.);
#98=ORIENTED_EDGE('',*,*,#86,.F.);
#99=ORIENTED_EDGE('',*,*,#84,.F.);
#100=ORIENTED_EDGE('',*,*,#87,.F.);
#101=ORIENTED_EDGE('',*,*,#85,.F.);
#102=ORIENTED_EDGE('',*,*,#88,.T.);
#103=ORIENTED_EDGE('',*,*,#86,.T.);
#104=ORIENTED_EDGE('',*,*,#89,.F.);
#105=ORIENTED_EDGE('',*,*,#88,.F.);
#106=ORIENTED_EDGE('',*,*,#82,.T.);
#107=ORIENTED_EDGE('',*,*,#89,.T.);
#108=ORIENTED_EDGE('',*,*,#83,.F.);
#109=ORIENTED_EDGE('',*,*,#87,.T.);
#110=CONICAL_SURFACE('',#127,12.05,45.);
#111=CONICAL_SURFACE('',#134,20.6,44.9999999999995);
#112=CONICAL_SURFACE('',#141,20.6,44.9999999999994);
#113=CONICAL_SURFACE('',#145,13.25,45.);
#114=ADVANCED_FACE('',(#32,#20),#110,.F.);
#115=ADVANCED_FACE('',(#33,#21),#17,.F.);
#116=ADVANCED_FACE('',(#34,#22),#14,.T.);
#117=ADVANCED_FACE('',(#35,#23),#111,.T.);
#118=ADVANCED_FACE('',(#36,#24),#18,.T.);
#119=ADVANCED_FACE('',(#25,#26),#15,.T.);
#120=ADVANCED_FACE('',(#37,#27),#112,.T.);
#121=ADVANCED_FACE('',(#28,#29),#16,.T.);
#122=ADVANCED_FACE('',(#38,#30),#113,.F.);
#123=ADVANCED_FACE('',(#39,#31),#19,.T.);
#124=CLOSED_SHELL('',(#114,#115,#116,#117,#118,#119,#120,#121,#122,#123));
#125=MANIFOLD_SOLID_BREP('Volumenk\X\F6rper1',#124);
#126=AXIS2_PLACEMENT_3D('placement',#189,#147,#148);
#127=AXIS2_PLACEMENT_3D('',#190,#149,#150);
#128=AXIS2_PLACEMENT_3D('',#192,#151,#152);
#129=AXIS2_PLACEMENT_3D('',#194,#153,#154);
#130=AXIS2_PLACEMENT_3D('',#195,#155,#156);
#131=AXIS2_PLACEMENT_3D('',#197,#157,#158);
#132=AXIS2_PLACEMENT_3D('',#198,#159,#160);
#133=AXIS2_PLACEMENT_3D('',#200,#161,#162);
#134=AXIS2_PLACEMENT_3D('',#201,#163,#164);
#135=AXIS2_PLACEMENT_3D('',#203,#165,#166);
#136=AXIS2_PLACEMENT_3D('',#205,#167,#168);
#137=AXIS2_PLACEMENT_3D('',#206,#169,#170);
#138=AXIS2_PLACEMENT_3D('',#208,#171,#172);
#139=AXIS2_PLACEMENT_3D('',#209,#173,#174);
#140=AXIS2_PLACEMENT_3D('',#211,#175,#176);
#141=AXIS2_PLACEMENT_3D('',#212,#177,#178);
#142=AXIS2_PLACEMENT_3D('',#214,#179,#180);
#143=AXIS2_PLACEMENT_3D('',#215,#181,#182);
#144=AXIS2_PLACEMENT_3D('',#217,#183,#184);
#145=AXIS2_PLACEMENT_3D('',#218,#185,#186);
#146=AXIS2_PLACEMENT_3D('',#219,#187,#188);
#147=DIRECTION('axis',(0.,0.,1.));
#148=DIRECTION('refdir',(1.,0.,0.));
#149=DIRECTION('center_axis',(0.,0.,1.));
#150=DIRECTION('ref_axis',(0.,-1.,0.));
#151=DIRECTION('center_axis',(0.,0.,1.));
#152=DIRECTION('ref_axis',(0.,-1.,0.));
#153=DIRECTION('center_axis',(0.,0.,-1.));
#154=DIRECTION('ref_axis',(0.,-1.,0.));
#155=DIRECTION('center_axis',(0.,0.,1.));
#156=DIRECTION('ref_axis',(0.,1.,0.));
#157=DIRECTION('center_axis',(0.,0.,1.));
#158=DIRECTION('ref_axis',(0.,-1.,0.));
#159=DIRECTION('center_axis',(0.,0.,1.));
#160=DIRECTION('ref_axis',(1.,0.,0.));
#161=DIRECTION('center_axis',(0.,0.,1.));
#162=DIRECTION('ref_axis',(0.,1.,0.));
#163=DIRECTION('center_axis',(0.,0.,-1.));
#164=DIRECTION('ref_axis',(0.,-1.,0.));
#165=DIRECTION('center_axis',(0.,0.,1.));
#166=DIRECTION('ref_axis',(0.,-1.,0.));
#167=DIRECTION('center_axis',(0.,0.,-1.));
#168=DIRECTION('ref_axis',(0.,-1.,0.));
#169=DIRECTION('center_axis',(0.,0.,1.));
#170=DIRECTION('ref_axis',(0.,1.,0.));
#171=DIRECTION('center_axis',(0.,0.,-1.));
#172=DIRECTION('ref_axis',(0.,-1.,0.));
#173=DIRECTION('center_axis',(0.,0.,1.));
#174=DIRECTION('ref_axis',(1.,0.,0.));
#175=DIRECTION('center_axis',(0.,0.,1.));
#176=DIRECTION('ref_axis',(0.,1.,0.));
#177=DIRECTION('center_axis',(0.,0.,1.));
#178=DIRECTION('ref_axis',(0.,-1.,0.));
#179=DIRECTION('center_axis',(0.,0.,1.));
#180=DIRECTION('ref_axis',(0.,-1.,0.));
#181=DIRECTION('center_axis',(0.,0.,-1.));
#182=DIRECTION('ref_axis',(-1.,0.,0.));
#183=DIRECTION('center_axis',(0.,0.,-1.));
#184=DIRECTION('ref_axis',(0.,-1.,0.));
#185=DIRECTION('center_axis',(0.,0.,-1.));
#186=DIRECTION('ref_axis',(0.,-1.,0.));
#187=DIRECTION('center_axis',(0.,0.,1.));
#188=DIRECTION('ref_axis',(0.,1.,0.));
#189=CARTESIAN_POINT('',(0.,0.,0.));
#190=CARTESIAN_POINT('Origin',(0.,0.,4.95));
#191=CARTESIAN_POINT('',(-1.4818226269683E-015,12.1,5.));
#192=CARTESIAN_POINT('Origin',(0.,0.,5.));
#193=CARTESIAN_POINT('',(1.46957615897682E-015,12.,4.9));
#194=CARTESIAN_POINT('Origin',(0.,0.,4.9));
#195=CARTESIAN_POINT('Origin',(0.,0.,1.5));
#196=CARTESIAN_POINT('',(-1.46957615897682E-015,12.,2.5));
#197=CARTESIAN_POINT('Origin',(0.,0.,2.5));
#198=CARTESIAN_POINT('Origin',(0.,12.75,5.));
#199=CARTESIAN_POINT('',(0.,13.5,5.));
#200=CARTESIAN_POINT('Origin',(0.,0.,5.));
#201=CARTESIAN_POINT('Origin',(0.,0.,3.15));
#202=CARTESIAN_POINT('',(-2.52889564023928E-015,20.65,3.1));
#203=CARTESIAN_POINT('Origin',(0.,0.,3.1));
#204=CARTESIAN_POINT('',(2.51664917224781E-015,20.55,3.2));
#205=CARTESIAN_POINT('Origin',(0.,0.,3.2));
#206=CARTESIAN_POINT('Origin',(0.,0.,1.6));
#207=CARTESIAN_POINT('',(2.52889564023928E-015,20.65,0.1));
#208=CARTESIAN_POINT('Origin',(0.,0.,0.1));
#209=CARTESIAN_POINT('Origin',(0.,17.075,3.2));
#210=CARTESIAN_POINT('',(0.,13.5,3.2));
#211=CARTESIAN_POINT('Origin',(0.,0.,3.2));
#212=CARTESIAN_POINT('Origin',(0.,0.,0.05));
#213=CARTESIAN_POINT('',(-2.51664917224781E-015,20.55,0.));
#214=CARTESIAN_POINT('Origin',(0.,0.,0.));
#215=CARTESIAN_POINT('Origin',(0.,16.325,0.));
#216=CARTESIAN_POINT('',(1.77573785876366E-015,14.5,0.));
#217=CARTESIAN_POINT('Origin',(0.,0.,0.));
#218=CARTESIAN_POINT('Origin',(0.,0.,1.25));
#219=CARTESIAN_POINT('Origin',(0.,0.,4.1));
#220=UNCERTAINTY_MEASURE_WITH_UNIT(LENGTH_MEASURE(0.01),#224,
'DISTANCE_ACCURACY_VALUE',
'Maximum model space distance between geometric entities at asserted c
onnectivities');
#221=UNCERTAINTY_MEASURE_WITH_UNIT(LENGTH_MEASURE(1.E-006),#224,
'DISTANCE_ACCURACY_VALUE',
'Maximum model space distance between geometric entities at asserted c
onnectivities');
#222=(
GEOMETRIC_REPRESENTATION_CONTEXT(3)
GLOBAL_UNCERTAINTY_ASSIGNED_CONTEXT((#220))
GLOBAL_UNIT_ASSIGNED_CONTEXT((#224,#227,#225))
REPRESENTATION_CONTEXT('','3D')
);
#223=(
GEOMETRIC_REPRESENTATION_CONTEXT(3)
GLOBAL_UNCERTAINTY_ASSIGNED_CONTEXT((#221))
GLOBAL_UNIT_ASSIGNED_CONTEXT((#224,#227,#225))
REPRESENTATION_CONTEXT('','3D')
);
#224=(
LENGTH_UNIT()
NAMED_UNIT(*)
SI_UNIT(.MILLI.,.METRE.)
);
#225=(
NAMED_UNIT(*)
SI_UNIT($,.STERADIAN.)
SOLID_ANGLE_UNIT()
);
#226=DIMENSIONAL_EXPONENTS(0.,0.,0.,0.,0.,0.,0.);
#227=(
CONVERSION_BASED_UNIT('degree',#229)
NAMED_UNIT(#226)
PLANE_ANGLE_UNIT()
);
#228=(
NAMED_UNIT(*)
PLANE_ANGLE_UNIT()
SI_UNIT($,.RADIAN.)
);
#229=PLANE_ANGLE_MEASURE_WITH_UNIT(PLANE_ANGLE_MEASURE(0.01745329252),#228);
#230=SHAPE_DEFINITION_REPRESENTATION(#231,#232);
#231=PRODUCT_DEFINITION_SHAPE('',$,#234);
#232=SHAPE_REPRESENTATION('',(#126),#222);
#233=PRODUCT_DEFINITION_CONTEXT('part definition',#238,'design');
#234=PRODUCT_DEFINITION('208.125.070.10_Adapterring_M27x05',
'208.125.070.10_Adapterring_M27x05',#235,#233);
#235=PRODUCT_DEFINITION_FORMATION('',$,#240);
#236=PRODUCT_RELATED_PRODUCT_CATEGORY(
'208.125.070.10_Adapterring_M27x05','208.125.070.10_Adapterring_M27x05',
(#240));
#237=APPLICATION_PROTOCOL_DEFINITION('international standard',
'automotive_design',2009,#238);
#238=APPLICATION_CONTEXT(
'Core Data for Automotive Mechanical Design Process');
#239=PRODUCT_CONTEXT('part definition',#238,'mechanical');
#240=PRODUCT('208.125.070.10_Adapterring_M27x05',
'208.125.070.10_Adapterring_M27x05',$,(#239));
#241=PRESENTATION_STYLE_ASSIGNMENT((#242));
#242=SURFACE_STYLE_USAGE(.BOTH.,#243);
#243=SURFACE_SIDE_STYLE($,(#244));
#244=SURFACE_STYLE_FILL_AREA(#245);
#245=FILL_AREA_STYLE($,(#246));
#246=FILL_AREA_STYLE_COLOUR($,#247);
#247=COLOUR_RGB('',0.16078431372549,0.16078431372549,0.16078431372549);
ENDSEC;
END-ISO-10303-21;
ISO-10303-21;
HEADER;
/* Generated by software containing ST-Developer
 * from STEP Tools, Inc. (www.steptools.com) 
 */

FILE_DESCRIPTION(
/* description */ ('Adapterring d41,3 / M27x0,5'),
/* implementation_level */ '2;1');

FILE_NAME(
/* name */ 
'H:\\CAD\\PROJEKTE\\208.125.000.26_RK2036_R\\PM\\web\\RK2036_AdapRing_
M27x0_5.stp',
/* time_stamp */ '2016-01-15T11:49:06+01:00',
/* author */ ('REGENSPURG'),
/* organization */ ('Vision & Control'),
/* preprocessor_version */ 'ST-DEVELOPER v15.2',
/* originating_system */ 'Autodesk Inventor 2014',
/* authorisation */ '');

FILE_SCHEMA (('AUTOMOTIVE_DESIGN { 1 0 10303 214 3 1 1 }'));
ENDSEC;

DATA;
#10=MECHANICAL_DESIGN_GEOMETRIC_PRESENTATION_REPRESENTATION('',(#13),#223);
#11=SHAPE_REPRESENTATION_RELATIONSHIP('SRR','None',#232,#12);
#12=ADVANCED_BREP_SHAPE_REPRESENTATION($,(#125),#222);
#13=STYLED_ITEM('',(#241),#125);
#14=PLANE('',#132);
#15=PLANE('',#139);
#16=PLANE('',#143);
#17=CYLINDRICAL_SURFACE('',#130,12.);
#18=CYLINDRICAL_SURFACE('',#137,20.65);
#19=CYLINDRICAL_SURFACE('',#146,13.5);
#20=FACE_BOUND('',#41,.T.);
#21=FACE_BOUND('',#43,.T.);
#22=FACE_BOUND('',#45,.T.);
#23=FACE_BOUND('',#47,.T.);
#24=FACE_BOUND('',#49,.T.);
#25=FACE_BOUND('',#50,.T.);
#26=FACE_BOUND('',#51,.T.);
#27=FACE_BOUND('',#53,.T.);
#28=FACE_BOUND('',#54,.T.);
#29=FACE_BOUND('',#55,.T.);
#30=FACE_BOUND('',#57,.T.);
#31=FACE_BOUND('',#59,.T.);
#32=FACE_OUTER_BOUND('',#40,.T.);
#33=FACE_OUTER_BOUND('',#42,.T.);
#34=FACE_OUTER_BOUND('',#44,.T.);
#35=FACE_OUTER_BOUND('',#46,.T.);
#36=FACE_OUTER_BOUND('',#48,.T.);
#37=FACE_OUTER_BOUND('',#52,.T.);
#38=FACE_OUTER_BOUND('',#56,.T.);
#39=FACE_OUTER_BOUND('',#58,.T.);
#40=EDGE_LOOP('',(#90));
#41=EDGE_LOOP('',(#91));
#42=EDGE_LOOP('',(#92));
#43=EDGE_LOOP('',(#93));
#44=EDGE_LOOP('',(#94));
#45=EDGE_LOOP('',(#95));
#46=EDGE_LOOP('',(#96));
#47=EDGE_LOOP('',(#97));
#48=EDGE_LOOP('',(#98));
#49=EDGE_LOOP('',(#99));
#50=EDGE_LOOP('',(#100));
#51=EDGE_LOOP('',(#101));
#52=EDGE_LOOP('',(#102));
#53=EDGE_LOOP('',(#103));
#54=EDGE_LOOP('',(#104));
#55=EDGE_LOOP('',(#105));
#56=EDGE_LOOP('',(#106));
#57=EDGE_LOOP('',(#107));
#58=EDGE_LOOP('',(#108));
#59=EDGE_LOOP('',(#109));
#60=CIRCLE('',#128,12.1);
#61=CIRCLE('',#129,12.);
#62=CIRCLE('',#131,12.);
#63=CIRCLE('',#133,13.5);
#64=CIRCLE('',#135,20.65);
#65=CIRCLE('',#136,20.55);
#66=CIRCLE('',#138,20.65);
#67=CIRCLE('',#140,13.5);
#68=CIRCLE('',#142,20.55);
#69=CIRCLE('',#144,14.5);
#70=VERTEX_POINT('',#191);
#71=VERTEX_POINT('',#193);
#72=VERTEX_POINT('',#196);
#73=VERTEX_POINT('',#199);
#74=VERTEX_POINT('',#202);
#75=VERTEX_POINT('',#204);
#76=VERTEX_POINT('',#207);
#77=VERTEX_POINT('',#210);
#78=VERTEX_POINT('',#213);
#79=VERTEX_POINT('',#216);
#80=EDGE_CURVE('',#70,#70,#60,.T.);
#81=EDGE_CURVE('',#71,#71,#61,.T.);
#82=EDGE_CURVE('',#72,#72,#62,.T.);
#83=EDGE_CURVE('',#73,#73,#63,.T.);
#84=EDGE_CURVE('',#74,#74,#64,.T.);
#85=EDGE_CURVE('',#75,#75,#65,.T.);
#86=EDGE_CURVE('',#76,#76,#66,.T.);
#87=EDGE_CURVE('',#77,#77,#67,.T.);
#88=EDGE_CURVE('',#78,#78,#68,.T.);
#89=EDGE_CURVE('',#79,#79,#69,.T.);
#90=ORIENTED_EDGE('',*,*,#80,.T.);
#91=ORIENTED_EDGE('',*,*,#81,.T.);
#92=ORIENTED_EDGE('',*,*,#82,.F.);
#93=ORIENTED_EDGE('',*,*,#81,.F.);
#94=ORIENTED_EDGE('',*,*,#83,.T.);
#95=ORIENTED_EDGE('',*,*,#80,.F.);
#96=ORIENTED_EDGE('',*,*,#84,.T.);
#97=ORIENTED_EDGE('',*,*,#85,.T.);
#98=ORIENTED_EDGE('',*,*,#86,.F.);
#99=ORIENTED_EDGE('',*,*,#84,.F.);
#100=ORIENTED_EDGE('',*,*,#87,.F.);
#101=ORIENTED_EDGE('',*,*,#85,.F.);
#102=ORIENTED_EDGE('',*,*,#88,.T.);
#103=ORIENTED_EDGE('',*,*,#86,.T.);
#104=ORIENTED_EDGE('',*,*,#89,.F.);
#105=ORIENTED_EDGE('',*,*,#88,.F.);
#106=ORIENTED_EDGE('',*,*,#82,.T.);
#107=ORIENTED_EDGE('',*,*,#89,.T.);
#108=ORIENTED_EDGE('',*,*,#83,.F.);
#109=ORIENTED_EDGE('',*,*,#87,.T.);
#110=CONICAL_SURFACE('',#127,12.05,45.);
#111=CONICAL_SURFACE('',#134,20.6,44.9999999999995);
#112=CONICAL_SURFACE('',#141,20.6,44.9999999999994);
#113=CONICAL_SURFACE('',#145,13.25,45.);
#114=ADVANCED_FACE('',(#32,#20),#110,.F.);
#115=ADVANCED_FACE('',(#33,#21),#17,.F.);
#116=ADVANCED_FACE('',(#34,#22),#14,.T.);
#117=ADVANCED_FACE('',(#35,#23),#111,.T.);
#118=ADVANCED_FACE('',(#36,#24),#18,.T.);
#119=ADVANCED_FACE('',(#25,#26),#15,.T.);
#120=ADVANCED_FACE('',(#37,#27),#112,.T.);
#121=ADVANCED_FACE('',(#28,#29),#16,.T.);
#122=ADVANCED_FACE('',(#38,#30),#113,.F.);
#123=ADVANCED_FACE('',(#39,#31),#19,.T.);
#124=CLOSED_SHELL('',(#114,#115,#116,#117,#118,#119,#120,#121,#122,#123));
#125=MANIFOLD_SOLID_BREP('Volumenk\X\F6rper1',#124);
#126=AXIS2_PLACEMENT_3D('placement',#189,#147,#148);
#127=AXIS2_PLACEMENT_3D('',#190,#149,#150);
#128=AXIS2_PLACEMENT_3D('',#192,#151,#152);
#129=AXIS2_PLACEMENT_3D('',#194,#153,#154);
#130=AXIS2_PLACEMENT_3D('',#195,#155,#156);
#131=AXIS2_PLACEMENT_3D('',#197,#157,#158);
#132=AXIS2_PLACEMENT_3D('',#198,#159,#160);
#133=AXIS2_PLACEMENT_3D('',#200,#161,#162);
#134=AXIS2_PLACEMENT_3D('',#201,#163,#164);
#135=AXIS2_PLACEMENT_3D('',#203,#165,#166);
#136=AXIS2_PLACEMENT_3D('',#205,#167,#168);
#137=AXIS2_PLACEMENT_3D('',#206,#169,#170);
#138=AXIS2_PLACEMENT_3D('',#208,#171,#172);
#139=AXIS2_PLACEMENT_3D('',#209,#173,#174);
#140=AXIS2_PLACEMENT_3D('',#211,#175,#176);
#141=AXIS2_PLACEMENT_3D('',#212,#177,#178);
#142=AXIS2_PLACEMENT_3D('',#214,#179,#180);
#143=AXIS2_PLACEMENT_3D('',#215,#181,#182);
#144=AXIS2_PLACEMENT_3D('',#217,#183,#184);
#145=AXIS2_PLACEMENT_3D('',#218,#185,#186);
#146=AXIS2_PLACEMENT_3D('',#219,#187,#188);
#147=DIRECTION('axis',(0.,0.,1.));
#148=DIRECTION('refdir',(1.,0.,0.));
#149=DIRECTION('center_axis',(0.,0.,1.));
#150=DIRECTION('ref_axis',(0.,-1.,0.));
#151=DIRECTION('center_axis',(0.,0.,1.));
#152=DIRECTION('ref_axis',(0.,-1.,0.));
#153=DIRECTION('center_axis',(0.,0.,-1.));
#154=DIRECTION('ref_axis',(0.,-1.,0.));
#155=DIRECTION('center_axis',(0.,0.,1.));
#156=DIRECTION('ref_axis',(0.,1.,0.));
#157=DIRECTION('center_axis',(0.,0.,1.));
#158=DIRECTION('ref_axis',(0.,-1.,0.));
#159=DIRECTION('center_axis',(0.,0.,1.));
#160=DIRECTION('ref_axis',(1.,0.,0.));
#161=DIRECTION('center_axis',(0.,0.,1.));
#162=DIRECTION('ref_axis',(0.,1.,0.));
#163=DIRECTION('center_axis',(0.,0.,-1.));
#164=DIRECTION('ref_axis',(0.,-1.,0.));
#165=DIRECTION('center_axis',(0.,0.,1.));
#166=DIRECTION('ref_axis',(0.,-1.,0.));
#167=DIRECTION('center_axis',(0.,0.,-1.));
#168=DIRECTION('ref_axis',(0.,-1.,0.));
#169=DIRECTION('center_axis',(0.,0.,1.));
#170=DIRECTION('ref_axis',(0.,1.,0.));
#171=DIRECTION('center_axis',(0.,0.,-1.));
#172=DIRECTION('ref_axis',(0.,-1.,0.));
#173=DIRECTION('center_axis',(0.,0.,1.));
#174=DIRECTION('ref_axis',(1.,0.,0.));
#175=DIRECTION('center_axis',(0.,0.,1.));
#176=DIRECTION('ref_axis',(0.,1.,0.));
#177=DIRECTION('center_axis',(0.,0.,1.));
#178=DIRECTION('ref_axis',(0.,-1.,0.));
#179=DIRECTION('center_axis',(0.,0.,1.));
#180=DIRECTION('ref_axis',(0.,-1.,0.));
#181=DIRECTION('center_axis',(0.,0.,-1.));
#182=DIRECTION('ref_axis',(-1.,0.,0.));
#183=DIRECTION('center_axis',(0.,0.,-1.));
#184=DIRECTION('ref_axis',(0.,-1.,0.));
#185=DIRECTION('center_axis',(0.,0.,-1.));
#186=DIRECTION('ref_axis',(0.,-1.,0.));
#187=DIRECTION('center_axis',(0.,0.,1.));
#188=DIRECTION('ref_axis',(0.,1.,0.));
#189=CARTESIAN_POINT('',(0.,0.,0.));
#190=CARTESIAN_POINT('Origin',(0.,0.,4.95));
#191=CARTESIAN_POINT('',(-1.4818226269683E-015,12.1,5.));
#192=CARTESIAN_POINT('Origin',(0.,0.,5.));
#193=CARTESIAN_POINT('',(1.46957615897682E-015,12.,4.9));
#194=CARTESIAN_POINT('Origin',(0.,0.,4.9));
#195=CARTESIAN_POINT('Origin',(0.,0.,1.5));
#196=CARTESIAN_POINT('',(-1.46957615897682E-015,12.,2.5));
#197=CARTESIAN_POINT('Origin',(0.,0.,2.5));
#198=CARTESIAN_POINT('Origin',(0.,12.75,5.));
#199=CARTESIAN_POINT('',(0.,13.5,5.));
#200=CARTESIAN_POINT('Origin',(0.,0.,5.));
#201=CARTESIAN_POINT('Origin',(0.,0.,3.15));
#202=CARTESIAN_POINT('',(-2.52889564023928E-015,20.65,3.1));
#203=CARTESIAN_POINT('Origin',(0.,0.,3.1));
#204=CARTESIAN_POINT('',(2.51664917224781E-015,20.55,3.2));
#205=CARTESIAN_POINT('Origin',(0.,0.,3.2));
#206=CARTESIAN_POINT('Origin',(0.,0.,1.6));
#207=CARTESIAN_POINT('',(2.52889564023928E-015,20.65,0.1));
#208=CARTESIAN_POINT('Origin',(0.,0.,0.1));
#209=CARTESIAN_POINT('Origin',(0.,17.075,3.2));
#210=CARTESIAN_POINT('',(0.,13.5,3.2));
#211=CARTESIAN_POINT('Origin',(0.,0.,3.2));
#212=CARTESIAN_POINT('Origin',(0.,0.,0.05));
#213=CARTESIAN_POINT('',(-2.51664917224781E-015,20.55,0.));
#214=CARTESIAN_POINT('Origin',(0.,0.,0.));
#215=CARTESIAN_POINT('Origin',(0.,16.325,0.));
#216=CARTESIAN_POINT('',(1.77573785876366E-015,14.5,0.));
#217=CARTESIAN_POINT('Origin',(0.,0.,0.));
#218=CARTESIAN_POINT('Origin',(0.,0.,1.25));
#219=CARTESIAN_POINT('Origin',(0.,0.,4.1));
#220=UNCERTAINTY_MEASURE_WITH_UNIT(LENGTH_MEASURE(0.01),#224,
'DISTANCE_ACCURACY_VALUE',
'Maximum model space distance between geometric entities at asserted c
onnectivities');
#221=UNCERTAINTY_MEASURE_WITH_UNIT(LENGTH_MEASURE(1.E-006),#224,
'DISTANCE_ACCURACY_VALUE',
'Maximum model space distance between geometric entities at asserted c
onnectivities');
#222=(
GEOMETRIC_REPRESENTATION_CONTEXT(3)
GLOBAL_UNCERTAINTY_ASSIGNED_CONTEXT((#220))
GLOBAL_UNIT_ASSIGNED_CONTEXT((#224,#227,#225))
REPRESENTATION_CONTEXT('','3D')
);
#223=(
GEOMETRIC_REPRESENTATION_CONTEXT(3)
GLOBAL_UNCERTAINTY_ASSIGNED_CONTEXT((#221))
GLOBAL_UNIT_ASSIGNED_CONTEXT((#224,#227,#225))
REPRESENTATION_CONTEXT('','3D')
);
#224=(
LENGTH_UNIT()
NAMED_UNIT(*)
SI_UNIT(.MILLI.,.METRE.)
);
#225=(
NAMED_UNIT(*)
SI_UNIT($,.STERADIAN.)
SOLID_ANGLE_UNIT()
);
#226=DIMENSIONAL_EXPONENTS(0.,0.,0.,0.,0.,0.,0.);
#227=(
CONVERSION_BASED_UNIT('degree',#229)
NAMED_UNIT(#226)
PLANE_ANGLE_UNIT()
);
#228=(
NAMED_UNIT(*)
PLANE_ANGLE_UNIT()
SI_UNIT($,.RADIAN.)
);
#229=PLANE_ANGLE_MEASURE_WITH_UNIT(PLANE_ANGLE_MEASURE(0.01745329252),#228);
#230=SHAPE_DEFINITION_REPRESENTATION(#231,#232);
#231=PRODUCT_DEFINITION_SHAPE('',$,#234);
#232=SHAPE_REPRESENTATION('',(#126),#222);
#233=PRODUCT_DEFINITION_CONTEXT('part definition',#238,'design');
#234=PRODUCT_DEFINITION('208.125.070.10_Adapterring_M27x05',
'208.125.070.10_Adapterring_M27x05',#235,#233);
#235=PRODUCT_DEFINITION_FORMATION('',$,#240);
#236=PRODUCT_RELATED_PRODUCT_CATEGORY(
'208.125.070.10_Adapterring_M27x05','208.125.070.10_Adapterring_M27x05',
(#240));
#237=APPLICATION_PROTOCOL_DEFINITION('international standard',
'automotive_design',2009,#238);
#238=APPLICATION_CONTEXT(
'Core Data for Automotive Mechanical Design Process');
#239=PRODUCT_CONTEXT('part definition',#238,'mechanical');
#240=PRODUCT('208.125.070.10_Adapterring_M27x05',
'208.125.070.10_Adapterring_M27x05',$,(#239));
#241=PRESENTATION_STYLE_ASSIGNMENT((#242));
#242=SURFACE_STYLE_USAGE(.BOTH.,#243);
#243=SURFACE_SIDE_STYLE($,(#244));
#244=SURFACE_STYLE_FILL_AREA(#245);
#245=FILL_AREA_STYLE($,(#246));
#246=FILL_AREA_STYLE_COLOUR($,#247);
#247=COLOUR_RGB('',0.16078431372549,0.16078431372549,0.16078431372549);
ENDSEC;
END-ISO-10303-21;
