ISO-10303-21;
HEADER;
/* Generated by software containing ST-Developer
 * from STEP Tools, Inc. (www.steptools.com) 
 */

FILE_DESCRIPTION(
/* description */ ('Adapterring d27 / M27x0,5'),
/* implementation_level */ '2;1');

FILE_NAME(
/* name */ 
'H:\\CAD\\PROJEKTE\\200.169.000.26_RK1220\\PM\\web\\RK1220_AdapterRing
_M27x0_5.stp',
/* time_stamp */ '2016-01-13T11:57:54+01:00',
/* author */ ('REGENSPURG'),
/* organization */ ('Vision & Control'),
/* preprocessor_version */ 'ST-DEVELOPER v15.2',
/* originating_system */ 'Autodesk Inventor 2014',
/* authorisation */ '');

FILE_SCHEMA (('AUTOMOTIVE_DESIGN { 1 0 10303 214 3 1 1 }'));
ENDSEC;

DATA;
#10=MECHANICAL_DESIGN_GEOMETRIC_PRESENTATION_REPRESENTATION('',(#13),#283);
#11=SHAPE_REPRESENTATION_RELATIONSHIP('SRR','None',#292,#12);
#12=ADVANCED_BREP_SHAPE_REPRESENTATION($,(#158),#282);
#13=STYLED_ITEM('',(#301),#158);
#14=PLANE('',#165);
#15=PLANE('',#172);
#16=PLANE('',#176);
#17=PLANE('',#181);
#18=CYLINDRICAL_SURFACE('',#163,14.25);
#19=CYLINDRICAL_SURFACE('',#170,12.);
#20=CYLINDRICAL_SURFACE('',#183,13.45);
#21=CYLINDRICAL_SURFACE('',#185,13.5);
#22=FACE_BOUND('',#49,.T.);
#23=FACE_BOUND('',#51,.T.);
#24=FACE_BOUND('',#52,.T.);
#25=FACE_BOUND('',#53,.T.);
#26=FACE_BOUND('',#55,.T.);
#27=FACE_BOUND('',#57,.T.);
#28=FACE_BOUND('',#59,.T.);
#29=FACE_BOUND('',#61,.T.);
#30=FACE_BOUND('',#62,.T.);
#31=FACE_BOUND('',#63,.T.);
#32=FACE_BOUND('',#65,.T.);
#33=FACE_BOUND('',#66,.T.);
#34=FACE_BOUND('',#67,.T.);
#35=FACE_BOUND('',#69,.T.);
#36=FACE_BOUND('',#71,.T.);
#37=FACE_BOUND('',#73,.T.);
#38=FACE_OUTER_BOUND('',#48,.T.);
#39=FACE_OUTER_BOUND('',#50,.T.);
#40=FACE_OUTER_BOUND('',#54,.T.);
#41=FACE_OUTER_BOUND('',#56,.T.);
#42=FACE_OUTER_BOUND('',#58,.T.);
#43=FACE_OUTER_BOUND('',#60,.T.);
#44=FACE_OUTER_BOUND('',#64,.T.);
#45=FACE_OUTER_BOUND('',#68,.T.);
#46=FACE_OUTER_BOUND('',#70,.T.);
#47=FACE_OUTER_BOUND('',#72,.T.);
#48=EDGE_LOOP('',(#113));
#49=EDGE_LOOP('',(#114));
#50=EDGE_LOOP('',(#115));
#51=EDGE_LOOP('',(#116));
#52=EDGE_LOOP('',(#117));
#53=EDGE_LOOP('',(#118));
#54=EDGE_LOOP('',(#119));
#55=EDGE_LOOP('',(#120));
#56=EDGE_LOOP('',(#121));
#57=EDGE_LOOP('',(#122));
#58=EDGE_LOOP('',(#123));
#59=EDGE_LOOP('',(#124));
#60=EDGE_LOOP('',(#125));
#61=EDGE_LOOP('',(#126));
#62=EDGE_LOOP('',(#127));
#63=EDGE_LOOP('',(#128));
#64=EDGE_LOOP('',(#129));
#65=EDGE_LOOP('',(#130));
#66=EDGE_LOOP('',(#131));
#67=EDGE_LOOP('',(#132));
#68=EDGE_LOOP('',(#133));
#69=EDGE_LOOP('',(#134));
#70=EDGE_LOOP('',(#135));
#71=EDGE_LOOP('',(#136));
#72=EDGE_LOOP('',(#137));
#73=EDGE_LOOP('',(#138));
#74=CIRCLE('',#161,14.15);
#75=CIRCLE('',#162,14.25);
#76=CIRCLE('',#164,14.25);
#77=CIRCLE('',#166,13.5);
#78=CIRCLE('',#168,12.);
#79=CIRCLE('',#169,12.2);
#80=CIRCLE('',#171,12.);
#81=CIRCLE('',#173,13.5);
#82=CIRCLE('',#175,14.05);
#83=CIRCLE('',#177,13.45);
#84=CIRCLE('',#179,13.45);
#85=CIRCLE('',#180,13.25);
#86=CIRCLE('',#182,12.2);
#87=VERTEX_POINT('',#242);
#88=VERTEX_POINT('',#244);
#89=VERTEX_POINT('',#247);
#90=VERTEX_POINT('',#250);
#91=VERTEX_POINT('',#253);
#92=VERTEX_POINT('',#255);
#93=VERTEX_POINT('',#258);
#94=VERTEX_POINT('',#261);
#95=VERTEX_POINT('',#264);
#96=VERTEX_POINT('',#267);
#97=VERTEX_POINT('',#270);
#98=VERTEX_POINT('',#272);
#99=VERTEX_POINT('',#275);
#100=EDGE_CURVE('',#87,#87,#74,.T.);
#101=EDGE_CURVE('',#88,#88,#75,.T.);
#102=EDGE_CURVE('',#89,#89,#76,.T.);
#103=EDGE_CURVE('',#90,#90,#77,.T.);
#104=EDGE_CURVE('',#91,#91,#78,.T.);
#105=EDGE_CURVE('',#92,#92,#79,.T.);
#106=EDGE_CURVE('',#93,#93,#80,.T.);
#107=EDGE_CURVE('',#94,#94,#81,.T.);
#108=EDGE_CURVE('',#95,#95,#82,.T.);
#109=EDGE_CURVE('',#96,#96,#83,.T.);
#110=EDGE_CURVE('',#97,#97,#84,.T.);
#111=EDGE_CURVE('',#98,#98,#85,.T.);
#112=EDGE_CURVE('',#99,#99,#86,.T.);
#113=ORIENTED_EDGE('',*,*,#100,.T.);
#114=ORIENTED_EDGE('',*,*,#101,.T.);
#115=ORIENTED_EDGE('',*,*,#102,.F.);
#116=ORIENTED_EDGE('',*,*,#101,.F.);
#117=ORIENTED_EDGE('',*,*,#103,.F.);
#118=ORIENTED_EDGE('',*,*,#100,.F.);
#119=ORIENTED_EDGE('',*,*,#104,.T.);
#120=ORIENTED_EDGE('',*,*,#105,.T.);
#121=ORIENTED_EDGE('',*,*,#106,.F.);
#122=ORIENTED_EDGE('',*,*,#104,.F.);
#123=ORIENTED_EDGE('',*,*,#107,.T.);
#124=ORIENTED_EDGE('',*,*,#105,.F.);
#125=ORIENTED_EDGE('',*,*,#108,.T.);
#126=ORIENTED_EDGE('',*,*,#102,.T.);
#127=ORIENTED_EDGE('',*,*,#109,.F.);
#128=ORIENTED_EDGE('',*,*,#108,.F.);
#129=ORIENTED_EDGE('',*,*,#110,.T.);
#130=ORIENTED_EDGE('',*,*,#111,.T.);
#131=ORIENTED_EDGE('',*,*,#112,.F.);
#132=ORIENTED_EDGE('',*,*,#111,.F.);
#133=ORIENTED_EDGE('',*,*,#109,.T.);
#134=ORIENTED_EDGE('',*,*,#110,.F.);
#135=ORIENTED_EDGE('',*,*,#106,.T.);
#136=ORIENTED_EDGE('',*,*,#112,.T.);
#137=ORIENTED_EDGE('',*,*,#103,.T.);
#138=ORIENTED_EDGE('',*,*,#107,.F.);
#139=CONICAL_SURFACE('',#160,14.2,45.);
#140=CONICAL_SURFACE('',#167,12.1,45.);
#141=CONICAL_SURFACE('',#174,14.15,45.);
#142=CONICAL_SURFACE('',#178,13.35,45.);
#143=CONICAL_SURFACE('',#184,12.1,45.);
#144=ADVANCED_FACE('',(#38,#22),#139,.T.);
#145=ADVANCED_FACE('',(#39,#23),#18,.T.);
#146=ADVANCED_FACE('',(#24,#25),#14,.F.);
#147=ADVANCED_FACE('',(#40,#26),#140,.F.);
#148=ADVANCED_FACE('',(#41,#27),#19,.F.);
#149=ADVANCED_FACE('',(#42,#28),#15,.T.);
#150=ADVANCED_FACE('',(#43,#29),#141,.T.);
#151=ADVANCED_FACE('',(#30,#31),#16,.F.);
#152=ADVANCED_FACE('',(#44,#32),#142,.T.);
#153=ADVANCED_FACE('',(#33,#34),#17,.F.);
#154=ADVANCED_FACE('',(#45,#35),#20,.T.);
#155=ADVANCED_FACE('',(#46,#36),#143,.F.);
#156=ADVANCED_FACE('',(#47,#37),#21,.T.);
#157=CLOSED_SHELL('',(#144,#145,#146,#147,#148,#149,#150,#151,#152,#153,
#154,#155,#156));
#158=MANIFOLD_SOLID_BREP('Volumenk\X\F6rper1',#157);
#159=AXIS2_PLACEMENT_3D('placement',#240,#186,#187);
#160=AXIS2_PLACEMENT_3D('',#241,#188,#189);
#161=AXIS2_PLACEMENT_3D('',#243,#190,#191);
#162=AXIS2_PLACEMENT_3D('',#245,#192,#193);
#163=AXIS2_PLACEMENT_3D('',#246,#194,#195);
#164=AXIS2_PLACEMENT_3D('',#248,#196,#197);
#165=AXIS2_PLACEMENT_3D('',#249,#198,#199);
#166=AXIS2_PLACEMENT_3D('',#251,#200,#201);
#167=AXIS2_PLACEMENT_3D('',#252,#202,#203);
#168=AXIS2_PLACEMENT_3D('',#254,#204,#205);
#169=AXIS2_PLACEMENT_3D('',#256,#206,#207);
#170=AXIS2_PLACEMENT_3D('',#257,#208,#209);
#171=AXIS2_PLACEMENT_3D('',#259,#210,#211);
#172=AXIS2_PLACEMENT_3D('',#260,#212,#213);
#173=AXIS2_PLACEMENT_3D('',#262,#214,#215);
#174=AXIS2_PLACEMENT_3D('',#263,#216,#217);
#175=AXIS2_PLACEMENT_3D('',#265,#218,#219);
#176=AXIS2_PLACEMENT_3D('',#266,#220,#221);
#177=AXIS2_PLACEMENT_3D('',#268,#222,#223);
#178=AXIS2_PLACEMENT_3D('',#269,#224,#225);
#179=AXIS2_PLACEMENT_3D('',#271,#226,#227);
#180=AXIS2_PLACEMENT_3D('',#273,#228,#229);
#181=AXIS2_PLACEMENT_3D('',#274,#230,#231);
#182=AXIS2_PLACEMENT_3D('',#276,#232,#233);
#183=AXIS2_PLACEMENT_3D('',#277,#234,#235);
#184=AXIS2_PLACEMENT_3D('',#278,#236,#237);
#185=AXIS2_PLACEMENT_3D('',#279,#238,#239);
#186=DIRECTION('axis',(0.,0.,1.));
#187=DIRECTION('refdir',(1.,0.,0.));
#188=DIRECTION('center_axis',(0.,0.,1.));
#189=DIRECTION('ref_axis',(1.,0.,0.));
#190=DIRECTION('center_axis',(0.,0.,1.));
#191=DIRECTION('ref_axis',(1.,0.,0.));
#192=DIRECTION('center_axis',(0.,0.,-1.));
#193=DIRECTION('ref_axis',(1.,0.,0.));
#194=DIRECTION('center_axis',(0.,0.,1.));
#195=DIRECTION('ref_axis',(-1.,0.,0.));
#196=DIRECTION('center_axis',(0.,0.,1.));
#197=DIRECTION('ref_axis',(-1.,0.,0.));
#198=DIRECTION('center_axis',(0.,0.,1.));
#199=DIRECTION('ref_axis',(1.,0.,0.));
#200=DIRECTION('center_axis',(0.,0.,-1.));
#201=DIRECTION('ref_axis',(1.,0.,0.));
#202=DIRECTION('center_axis',(0.,0.,-1.));
#203=DIRECTION('ref_axis',(-1.,0.,0.));
#204=DIRECTION('center_axis',(0.,0.,1.));
#205=DIRECTION('ref_axis',(-1.,0.,0.));
#206=DIRECTION('center_axis',(0.,0.,-1.));
#207=DIRECTION('ref_axis',(-1.,0.,0.));
#208=DIRECTION('center_axis',(0.,0.,-1.));
#209=DIRECTION('ref_axis',(-1.,0.,0.));
#210=DIRECTION('center_axis',(0.,0.,-1.));
#211=DIRECTION('ref_axis',(-1.,0.,0.));
#212=DIRECTION('center_axis',(0.,0.,-1.));
#213=DIRECTION('ref_axis',(-1.,0.,0.));
#214=DIRECTION('center_axis',(0.,0.,-1.));
#215=DIRECTION('ref_axis',(1.,0.,0.));
#216=DIRECTION('center_axis',(0.,0.,-1.));
#217=DIRECTION('ref_axis',(-1.,0.,0.));
#218=DIRECTION('center_axis',(0.,0.,-1.));
#219=DIRECTION('ref_axis',(-1.,0.,0.));
#220=DIRECTION('center_axis',(0.,0.,-1.));
#221=DIRECTION('ref_axis',(-1.,0.,0.));
#222=DIRECTION('center_axis',(0.,0.,1.));
#223=DIRECTION('ref_axis',(-1.,0.,0.));
#224=DIRECTION('center_axis',(0.,0.,-1.));
#225=DIRECTION('ref_axis',(-1.,0.,0.));
#226=DIRECTION('center_axis',(0.,0.,1.));
#227=DIRECTION('ref_axis',(-1.,0.,0.));
#228=DIRECTION('center_axis',(0.,0.,-1.));
#229=DIRECTION('ref_axis',(-1.,0.,0.));
#230=DIRECTION('center_axis',(0.,0.,-1.));
#231=DIRECTION('ref_axis',(-1.,0.,0.));
#232=DIRECTION('center_axis',(0.,0.,1.));
#233=DIRECTION('ref_axis',(-1.,0.,0.));
#234=DIRECTION('center_axis',(0.,0.,-1.));
#235=DIRECTION('ref_axis',(-1.,0.,0.));
#236=DIRECTION('center_axis',(0.,0.,1.));
#237=DIRECTION('ref_axis',(-1.,0.,0.));
#238=DIRECTION('center_axis',(0.,0.,1.));
#239=DIRECTION('ref_axis',(1.,0.,0.));
#240=CARTESIAN_POINT('',(0.,0.,0.));
#241=CARTESIAN_POINT('Origin',(0.,0.,1.85));
#242=CARTESIAN_POINT('',(-14.15,-1.7328752207935E-015,1.8));
#243=CARTESIAN_POINT('Origin',(0.,0.,1.8));
#244=CARTESIAN_POINT('',(-14.25,1.74512168878498E-015,1.9));
#245=CARTESIAN_POINT('Origin',(0.,0.,1.9));
#246=CARTESIAN_POINT('Origin',(0.,0.,0.));
#247=CARTESIAN_POINT('',(14.25,1.74512168878498E-015,2.8));
#248=CARTESIAN_POINT('Origin',(0.,0.,2.8));
#249=CARTESIAN_POINT('Origin',(0.,0.,1.8));
#250=CARTESIAN_POINT('',(-13.5,1.65327317884893E-015,1.8));
#251=CARTESIAN_POINT('Origin',(0.,0.,1.8));
#252=CARTESIAN_POINT('Origin',(0.,0.,0.1));
#253=CARTESIAN_POINT('',(12.,1.46957615897682E-015,0.2));
#254=CARTESIAN_POINT('Origin',(0.,0.,0.2));
#255=CARTESIAN_POINT('',(12.2,-1.49406909495977E-015,0.));
#256=CARTESIAN_POINT('Origin',(0.,0.,0.));
#257=CARTESIAN_POINT('Origin',(0.,0.,7.));
#258=CARTESIAN_POINT('',(12.,-1.46957615897682E-015,6.8));
#259=CARTESIAN_POINT('Origin',(0.,0.,6.8));
#260=CARTESIAN_POINT('Origin',(0.,0.,0.));
#261=CARTESIAN_POINT('',(-13.5,1.65327317884893E-015,0.));
#262=CARTESIAN_POINT('Origin',(0.,0.,0.));
#263=CARTESIAN_POINT('Origin',(0.,0.,2.9));
#264=CARTESIAN_POINT('',(14.05,-1.72062875280203E-015,3.));
#265=CARTESIAN_POINT('Origin',(0.,0.,3.));
#266=CARTESIAN_POINT('Origin',(0.,0.,3.));
#267=CARTESIAN_POINT('',(13.45,1.64714994485319E-015,3.));
#268=CARTESIAN_POINT('Origin',(0.,0.,3.));
#269=CARTESIAN_POINT('Origin',(0.,0.,6.9));
#270=CARTESIAN_POINT('',(13.45,1.64714994485319E-015,6.8));
#271=CARTESIAN_POINT('Origin',(0.,0.,6.8));
#272=CARTESIAN_POINT('',(13.25,-1.62265700887024E-015,7.));
#273=CARTESIAN_POINT('Origin',(0.,0.,7.));
#274=CARTESIAN_POINT('Origin',(0.,0.,7.));
#275=CARTESIAN_POINT('',(12.2,1.49406909495977E-015,7.));
#276=CARTESIAN_POINT('Origin',(0.,0.,7.));
#277=CARTESIAN_POINT('Origin',(0.,0.,7.));
#278=CARTESIAN_POINT('Origin',(0.,0.,6.9));
#279=CARTESIAN_POINT('Origin',(0.,0.,0.));
#280=UNCERTAINTY_MEASURE_WITH_UNIT(LENGTH_MEASURE(0.01),#284,
'DISTANCE_ACCURACY_VALUE',
'Maximum model space distance between geometric entities at asserted c
onnectivities');
#281=UNCERTAINTY_MEASURE_WITH_UNIT(LENGTH_MEASURE(1.E-006),#284,
'DISTANCE_ACCURACY_VALUE',
'Maximum model space distance between geometric entities at asserted c
onnectivities');
#282=(
GEOMETRIC_REPRESENTATION_CONTEXT(3)
GLOBAL_UNCERTAINTY_ASSIGNED_CONTEXT((#280))
GLOBAL_UNIT_ASSIGNED_CONTEXT((#284,#287,#285))
REPRESENTATION_CONTEXT('','3D')
);
#283=(
GEOMETRIC_REPRESENTATION_CONTEXT(3)
GLOBAL_UNCERTAINTY_ASSIGNED_CONTEXT((#281))
GLOBAL_UNIT_ASSIGNED_CONTEXT((#284,#287,#285))
REPRESENTATION_CONTEXT('','3D')
);
#284=(
LENGTH_UNIT()
NAMED_UNIT(*)
SI_UNIT(.MILLI.,.METRE.)
);
#285=(
NAMED_UNIT(*)
SI_UNIT($,.STERADIAN.)
SOLID_ANGLE_UNIT()
);
#286=DIMENSIONAL_EXPONENTS(0.,0.,0.,0.,0.,0.,0.);
#287=(
CONVERSION_BASED_UNIT('degree',#289)
NAMED_UNIT(#286)
PLANE_ANGLE_UNIT()
);
#288=(
NAMED_UNIT(*)
PLANE_ANGLE_UNIT()
SI_UNIT($,.RADIAN.)
);
#289=PLANE_ANGLE_MEASURE_WITH_UNIT(PLANE_ANGLE_MEASURE(0.01745329252),#288);
#290=SHAPE_DEFINITION_REPRESENTATION(#291,#292);
#291=PRODUCT_DEFINITION_SHAPE('',$,#294);
#292=SHAPE_REPRESENTATION('',(#159),#282);
#293=PRODUCT_DEFINITION_CONTEXT('part definition',#298,'design');
#294=PRODUCT_DEFINITION('200.169.006.10_Adapterring_M27x05',
'200.169.006.10_Adapterring_M27x05',#295,#293);
#295=PRODUCT_DEFINITION_FORMATION('',$,#300);
#296=PRODUCT_RELATED_PRODUCT_CATEGORY(
'200.169.006.10_Adapterring_M27x05','200.169.006.10_Adapterring_M27x05',
(#300));
#297=APPLICATION_PROTOCOL_DEFINITION('international standard',
'automotive_design',2009,#298);
#298=APPLICATION_CONTEXT(
'Core Data for Automotive Mechanical Design Process');
#299=PRODUCT_CONTEXT('part definition',#298,'mechanical');
#300=PRODUCT('200.169.006.10_Adapterring_M27x05',
'200.169.006.10_Adapterring_M27x05',$,(#299));
#301=PRESENTATION_STYLE_ASSIGNMENT((#302));
#302=SURFACE_STYLE_USAGE(.BOTH.,#303);
#303=SURFACE_SIDE_STYLE($,(#304));
#304=SURFACE_STYLE_FILL_AREA(#305);
#305=FILL_AREA_STYLE($,(#306));
#306=FILL_AREA_STYLE_COLOUR($,#307);
#307=COLOUR_RGB('',0.16078431372549,0.16078431372549,0.16078431372549);
ENDSEC;
END-ISO-10303-21;
ISO-10303-21;
HEADER;
/* Generated by software containing ST-Developer
 * from STEP Tools, Inc. (www.steptools.com) 
 */

FILE_DESCRIPTION(
/* description */ ('Adapterring d27 / M27x0,5'),
/* implementation_level */ '2;1');

FILE_NAME(
/* name */ 
'H:\\CAD\\PROJEKTE\\200.169.000.26_RK1220\\PM\\web\\RK1220_AdapterRing
_M27x0_5.stp',
/* time_stamp */ '2016-01-13T11:57:54+01:00',
/* author */ ('REGENSPURG'),
/* organization */ ('Vision & Control'),
/* preprocessor_version */ 'ST-DEVELOPER v15.2',
/* originating_system */ 'Autodesk Inventor 2014',
/* authorisation */ '');

FILE_SCHEMA (('AUTOMOTIVE_DESIGN { 1 0 10303 214 3 1 1 }'));
ENDSEC;

DATA;
#10=MECHANICAL_DESIGN_GEOMETRIC_PRESENTATION_REPRESENTATION('',(#13),#283);
#11=SHAPE_REPRESENTATION_RELATIONSHIP('SRR','None',#292,#12);
#12=ADVANCED_BREP_SHAPE_REPRESENTATION($,(#158),#282);
#13=STYLED_ITEM('',(#301),#158);
#14=PLANE('',#165);
#15=PLANE('',#172);
#16=PLANE('',#176);
#17=PLANE('',#181);
#18=CYLINDRICAL_SURFACE('',#163,14.25);
#19=CYLINDRICAL_SURFACE('',#170,12.);
#20=CYLINDRICAL_SURFACE('',#183,13.45);
#21=CYLINDRICAL_SURFACE('',#185,13.5);
#22=FACE_BOUND('',#49,.T.);
#23=FACE_BOUND('',#51,.T.);
#24=FACE_BOUND('',#52,.T.);
#25=FACE_BOUND('',#53,.T.);
#26=FACE_BOUND('',#55,.T.);
#27=FACE_BOUND('',#57,.T.);
#28=FACE_BOUND('',#59,.T.);
#29=FACE_BOUND('',#61,.T.);
#30=FACE_BOUND('',#62,.T.);
#31=FACE_BOUND('',#63,.T.);
#32=FACE_BOUND('',#65,.T.);
#33=FACE_BOUND('',#66,.T.);
#34=FACE_BOUND('',#67,.T.);
#35=FACE_BOUND('',#69,.T.);
#36=FACE_BOUND('',#71,.T.);
#37=FACE_BOUND('',#73,.T.);
#38=FACE_OUTER_BOUND('',#48,.T.);
#39=FACE_OUTER_BOUND('',#50,.T.);
#40=FACE_OUTER_BOUND('',#54,.T.);
#41=FACE_OUTER_BOUND('',#56,.T.);
#42=FACE_OUTER_BOUND('',#58,.T.);
#43=FACE_OUTER_BOUND('',#60,.T.);
#44=FACE_OUTER_BOUND('',#64,.T.);
#45=FACE_OUTER_BOUND('',#68,.T.);
#46=FACE_OUTER_BOUND('',#70,.T.);
#47=FACE_OUTER_BOUND('',#72,.T.);
#48=EDGE_LOOP('',(#113));
#49=EDGE_LOOP('',(#114));
#50=EDGE_LOOP('',(#115));
#51=EDGE_LOOP('',(#116));
#52=EDGE_LOOP('',(#117));
#53=EDGE_LOOP('',(#118));
#54=EDGE_LOOP('',(#119));
#55=EDGE_LOOP('',(#120));
#56=EDGE_LOOP('',(#121));
#57=EDGE_LOOP('',(#122));
#58=EDGE_LOOP('',(#123));
#59=EDGE_LOOP('',(#124));
#60=EDGE_LOOP('',(#125));
#61=EDGE_LOOP('',(#126));
#62=EDGE_LOOP('',(#127));
#63=EDGE_LOOP('',(#128));
#64=EDGE_LOOP('',(#129));
#65=EDGE_LOOP('',(#130));
#66=EDGE_LOOP('',(#131));
#67=EDGE_LOOP('',(#132));
#68=EDGE_LOOP('',(#133));
#69=EDGE_LOOP('',(#134));
#70=EDGE_LOOP('',(#135));
#71=EDGE_LOOP('',(#136));
#72=EDGE_LOOP('',(#137));
#73=EDGE_LOOP('',(#138));
#74=CIRCLE('',#161,14.15);
#75=CIRCLE('',#162,14.25);
#76=CIRCLE('',#164,14.25);
#77=CIRCLE('',#166,13.5);
#78=CIRCLE('',#168,12.);
#79=CIRCLE('',#169,12.2);
#80=CIRCLE('',#171,12.);
#81=CIRCLE('',#173,13.5);
#82=CIRCLE('',#175,14.05);
#83=CIRCLE('',#177,13.45);
#84=CIRCLE('',#179,13.45);
#85=CIRCLE('',#180,13.25);
#86=CIRCLE('',#182,12.2);
#87=VERTEX_POINT('',#242);
#88=VERTEX_POINT('',#244);
#89=VERTEX_POINT('',#247);
#90=VERTEX_POINT('',#250);
#91=VERTEX_POINT('',#253);
#92=VERTEX_POINT('',#255);
#93=VERTEX_POINT('',#258);
#94=VERTEX_POINT('',#261);
#95=VERTEX_POINT('',#264);
#96=VERTEX_POINT('',#267);
#97=VERTEX_POINT('',#270);
#98=VERTEX_POINT('',#272);
#99=VERTEX_POINT('',#275);
#100=EDGE_CURVE('',#87,#87,#74,.T.);
#101=EDGE_CURVE('',#88,#88,#75,.T.);
#102=EDGE_CURVE('',#89,#89,#76,.T.);
#103=EDGE_CURVE('',#90,#90,#77,.T.);
#104=EDGE_CURVE('',#91,#91,#78,.T.);
#105=EDGE_CURVE('',#92,#92,#79,.T.);
#106=EDGE_CURVE('',#93,#93,#80,.T.);
#107=EDGE_CURVE('',#94,#94,#81,.T.);
#108=EDGE_CURVE('',#95,#95,#82,.T.);
#109=EDGE_CURVE('',#96,#96,#83,.T.);
#110=EDGE_CURVE('',#97,#97,#84,.T.);
#111=EDGE_CURVE('',#98,#98,#85,.T.);
#112=EDGE_CURVE('',#99,#99,#86,.T.);
#113=ORIENTED_EDGE('',*,*,#100,.T.);
#114=ORIENTED_EDGE('',*,*,#101,.T.);
#115=ORIENTED_EDGE('',*,*,#102,.F.);
#116=ORIENTED_EDGE('',*,*,#101,.F.);
#117=ORIENTED_EDGE('',*,*,#103,.F.);
#118=ORIENTED_EDGE('',*,*,#100,.F.);
#119=ORIENTED_EDGE('',*,*,#104,.T.);
#120=ORIENTED_EDGE('',*,*,#105,.T.);
#121=ORIENTED_EDGE('',*,*,#106,.F.);
#122=ORIENTED_EDGE('',*,*,#104,.F.);
#123=ORIENTED_EDGE('',*,*,#107,.T.);
#124=ORIENTED_EDGE('',*,*,#105,.F.);
#125=ORIENTED_EDGE('',*,*,#108,.T.);
#126=ORIENTED_EDGE('',*,*,#102,.T.);
#127=ORIENTED_EDGE('',*,*,#109,.F.);
#128=ORIENTED_EDGE('',*,*,#108,.F.);
#129=ORIENTED_EDGE('',*,*,#110,.T.);
#130=ORIENTED_EDGE('',*,*,#111,.T.);
#131=ORIENTED_EDGE('',*,*,#112,.F.);
#132=ORIENTED_EDGE('',*,*,#111,.F.);
#133=ORIENTED_EDGE('',*,*,#109,.T.);
#134=ORIENTED_EDGE('',*,*,#110,.F.);
#135=ORIENTED_EDGE('',*,*,#106,.T.);
#136=ORIENTED_EDGE('',*,*,#112,.T.);
#137=ORIENTED_EDGE('',*,*,#103,.T.);
#138=ORIENTED_EDGE('',*,*,#107,.F.);
#139=CONICAL_SURFACE('',#160,14.2,45.);
#140=CONICAL_SURFACE('',#167,12.1,45.);
#141=CONICAL_SURFACE('',#174,14.15,45.);
#142=CONICAL_SURFACE('',#178,13.35,45.);
#143=CONICAL_SURFACE('',#184,12.1,45.);
#144=ADVANCED_FACE('',(#38,#22),#139,.T.);
#145=ADVANCED_FACE('',(#39,#23),#18,.T.);
#146=ADVANCED_FACE('',(#24,#25),#14,.F.);
#147=ADVANCED_FACE('',(#40,#26),#140,.F.);
#148=ADVANCED_FACE('',(#41,#27),#19,.F.);
#149=ADVANCED_FACE('',(#42,#28),#15,.T.);
#150=ADVANCED_FACE('',(#43,#29),#141,.T.);
#151=ADVANCED_FACE('',(#30,#31),#16,.F.);
#152=ADVANCED_FACE('',(#44,#32),#142,.T.);
#153=ADVANCED_FACE('',(#33,#34),#17,.F.);
#154=ADVANCED_FACE('',(#45,#35),#20,.T.);
#155=ADVANCED_FACE('',(#46,#36),#143,.F.);
#156=ADVANCED_FACE('',(#47,#37),#21,.T.);
#157=CLOSED_SHELL('',(#144,#145,#146,#147,#148,#149,#150,#151,#152,#153,
#154,#155,#156));
#158=MANIFOLD_SOLID_BREP('Volumenk\X\F6rper1',#157);
#159=AXIS2_PLACEMENT_3D('placement',#240,#186,#187);
#160=AXIS2_PLACEMENT_3D('',#241,#188,#189);
#161=AXIS2_PLACEMENT_3D('',#243,#190,#191);
#162=AXIS2_PLACEMENT_3D('',#245,#192,#193);
#163=AXIS2_PLACEMENT_3D('',#246,#194,#195);
#164=AXIS2_PLACEMENT_3D('',#248,#196,#197);
#165=AXIS2_PLACEMENT_3D('',#249,#198,#199);
#166=AXIS2_PLACEMENT_3D('',#251,#200,#201);
#167=AXIS2_PLACEMENT_3D('',#252,#202,#203);
#168=AXIS2_PLACEMENT_3D('',#254,#204,#205);
#169=AXIS2_PLACEMENT_3D('',#256,#206,#207);
#170=AXIS2_PLACEMENT_3D('',#257,#208,#209);
#171=AXIS2_PLACEMENT_3D('',#259,#210,#211);
#172=AXIS2_PLACEMENT_3D('',#260,#212,#213);
#173=AXIS2_PLACEMENT_3D('',#262,#214,#215);
#174=AXIS2_PLACEMENT_3D('',#263,#216,#217);
#175=AXIS2_PLACEMENT_3D('',#265,#218,#219);
#176=AXIS2_PLACEMENT_3D('',#266,#220,#221);
#177=AXIS2_PLACEMENT_3D('',#268,#222,#223);
#178=AXIS2_PLACEMENT_3D('',#269,#224,#225);
#179=AXIS2_PLACEMENT_3D('',#271,#226,#227);
#180=AXIS2_PLACEMENT_3D('',#273,#228,#229);
#181=AXIS2_PLACEMENT_3D('',#274,#230,#231);
#182=AXIS2_PLACEMENT_3D('',#276,#232,#233);
#183=AXIS2_PLACEMENT_3D('',#277,#234,#235);
#184=AXIS2_PLACEMENT_3D('',#278,#236,#237);
#185=AXIS2_PLACEMENT_3D('',#279,#238,#239);
#186=DIRECTION('axis',(0.,0.,1.));
#187=DIRECTION('refdir',(1.,0.,0.));
#188=DIRECTION('center_axis',(0.,0.,1.));
#189=DIRECTION('ref_axis',(1.,0.,0.));
#190=DIRECTION('center_axis',(0.,0.,1.));
#191=DIRECTION('ref_axis',(1.,0.,0.));
#192=DIRECTION('center_axis',(0.,0.,-1.));
#193=DIRECTION('ref_axis',(1.,0.,0.));
#194=DIRECTION('center_axis',(0.,0.,1.));
#195=DIRECTION('ref_axis',(-1.,0.,0.));
#196=DIRECTION('center_axis',(0.,0.,1.));
#197=DIRECTION('ref_axis',(-1.,0.,0.));
#198=DIRECTION('center_axis',(0.,0.,1.));
#199=DIRECTION('ref_axis',(1.,0.,0.));
#200=DIRECTION('center_axis',(0.,0.,-1.));
#201=DIRECTION('ref_axis',(1.,0.,0.));
#202=DIRECTION('center_axis',(0.,0.,-1.));
#203=DIRECTION('ref_axis',(-1.,0.,0.));
#204=DIRECTION('center_axis',(0.,0.,1.));
#205=DIRECTION('ref_axis',(-1.,0.,0.));
#206=DIRECTION('center_axis',(0.,0.,-1.));
#207=DIRECTION('ref_axis',(-1.,0.,0.));
#208=DIRECTION('center_axis',(0.,0.,-1.));
#209=DIRECTION('ref_axis',(-1.,0.,0.));
#210=DIRECTION('center_axis',(0.,0.,-1.));
#211=DIRECTION('ref_axis',(-1.,0.,0.));
#212=DIRECTION('center_axis',(0.,0.,-1.));
#213=DIRECTION('ref_axis',(-1.,0.,0.));
#214=DIRECTION('center_axis',(0.,0.,-1.));
#215=DIRECTION('ref_axis',(1.,0.,0.));
#216=DIRECTION('center_axis',(0.,0.,-1.));
#217=DIRECTION('ref_axis',(-1.,0.,0.));
#218=DIRECTION('center_axis',(0.,0.,-1.));
#219=DIRECTION('ref_axis',(-1.,0.,0.));
#220=DIRECTION('center_axis',(0.,0.,-1.));
#221=DIRECTION('ref_axis',(-1.,0.,0.));
#222=DIRECTION('center_axis',(0.,0.,1.));
#223=DIRECTION('ref_axis',(-1.,0.,0.));
#224=DIRECTION('center_axis',(0.,0.,-1.));
#225=DIRECTION('ref_axis',(-1.,0.,0.));
#226=DIRECTION('center_axis',(0.,0.,1.));
#227=DIRECTION('ref_axis',(-1.,0.,0.));
#228=DIRECTION('center_axis',(0.,0.,-1.));
#229=DIRECTION('ref_axis',(-1.,0.,0.));
#230=DIRECTION('center_axis',(0.,0.,-1.));
#231=DIRECTION('ref_axis',(-1.,0.,0.));
#232=DIRECTION('center_axis',(0.,0.,1.));
#233=DIRECTION('ref_axis',(-1.,0.,0.));
#234=DIRECTION('center_axis',(0.,0.,-1.));
#235=DIRECTION('ref_axis',(-1.,0.,0.));
#236=DIRECTION('center_axis',(0.,0.,1.));
#237=DIRECTION('ref_axis',(-1.,0.,0.));
#238=DIRECTION('center_axis',(0.,0.,1.));
#239=DIRECTION('ref_axis',(1.,0.,0.));
#240=CARTESIAN_POINT('',(0.,0.,0.));
#241=CARTESIAN_POINT('Origin',(0.,0.,1.85));
#242=CARTESIAN_POINT('',(-14.15,-1.7328752207935E-015,1.8));
#243=CARTESIAN_POINT('Origin',(0.,0.,1.8));
#244=CARTESIAN_POINT('',(-14.25,1.74512168878498E-015,1.9));
#245=CARTESIAN_POINT('Origin',(0.,0.,1.9));
#246=CARTESIAN_POINT('Origin',(0.,0.,0.));
#247=CARTESIAN_POINT('',(14.25,1.74512168878498E-015,2.8));
#248=CARTESIAN_POINT('Origin',(0.,0.,2.8));
#249=CARTESIAN_POINT('Origin',(0.,0.,1.8));
#250=CARTESIAN_POINT('',(-13.5,1.65327317884893E-015,1.8));
#251=CARTESIAN_POINT('Origin',(0.,0.,1.8));
#252=CARTESIAN_POINT('Origin',(0.,0.,0.1));
#253=CARTESIAN_POINT('',(12.,1.46957615897682E-015,0.2));
#254=CARTESIAN_POINT('Origin',(0.,0.,0.2));
#255=CARTESIAN_POINT('',(12.2,-1.49406909495977E-015,0.));
#256=CARTESIAN_POINT('Origin',(0.,0.,0.));
#257=CARTESIAN_POINT('Origin',(0.,0.,7.));
#258=CARTESIAN_POINT('',(12.,-1.46957615897682E-015,6.8));
#259=CARTESIAN_POINT('Origin',(0.,0.,6.8));
#260=CARTESIAN_POINT('Origin',(0.,0.,0.));
#261=CARTESIAN_POINT('',(-13.5,1.65327317884893E-015,0.));
#262=CARTESIAN_POINT('Origin',(0.,0.,0.));
#263=CARTESIAN_POINT('Origin',(0.,0.,2.9));
#264=CARTESIAN_POINT('',(14.05,-1.72062875280203E-015,3.));
#265=CARTESIAN_POINT('Origin',(0.,0.,3.));
#266=CARTESIAN_POINT('Origin',(0.,0.,3.));
#267=CARTESIAN_POINT('',(13.45,1.64714994485319E-015,3.));
#268=CARTESIAN_POINT('Origin',(0.,0.,3.));
#269=CARTESIAN_POINT('Origin',(0.,0.,6.9));
#270=CARTESIAN_POINT('',(13.45,1.64714994485319E-015,6.8));
#271=CARTESIAN_POINT('Origin',(0.,0.,6.8));
#272=CARTESIAN_POINT('',(13.25,-1.62265700887024E-015,7.));
#273=CARTESIAN_POINT('Origin',(0.,0.,7.));
#274=CARTESIAN_POINT('Origin',(0.,0.,7.));
#275=CARTESIAN_POINT('',(12.2,1.49406909495977E-015,7.));
#276=CARTESIAN_POINT('Origin',(0.,0.,7.));
#277=CARTESIAN_POINT('Origin',(0.,0.,7.));
#278=CARTESIAN_POINT('Origin',(0.,0.,6.9));
#279=CARTESIAN_POINT('Origin',(0.,0.,0.));
#280=UNCERTAINTY_MEASURE_WITH_UNIT(LENGTH_MEASURE(0.01),#284,
'DISTANCE_ACCURACY_VALUE',
'Maximum model space distance between geometric entities at asserted c
onnectivities');
#281=UNCERTAINTY_MEASURE_WITH_UNIT(LENGTH_MEASURE(1.E-006),#284,
'DISTANCE_ACCURACY_VALUE',
'Maximum model space distance between geometric entities at asserted c
onnectivities');
#282=(
GEOMETRIC_REPRESENTATION_CONTEXT(3)
GLOBAL_UNCERTAINTY_ASSIGNED_CONTEXT((#280))
GLOBAL_UNIT_ASSIGNED_CONTEXT((#284,#287,#285))
REPRESENTATION_CONTEXT('','3D')
);
#283=(
GEOMETRIC_REPRESENTATION_CONTEXT(3)
GLOBAL_UNCERTAINTY_ASSIGNED_CONTEXT((#281))
GLOBAL_UNIT_ASSIGNED_CONTEXT((#284,#287,#285))
REPRESENTATION_CONTEXT('','3D')
);
#284=(
LENGTH_UNIT()
NAMED_UNIT(*)
SI_UNIT(.MILLI.,.METRE.)
);
#285=(
NAMED_UNIT(*)
SI_UNIT($,.STERADIAN.)
SOLID_ANGLE_UNIT()
);
#286=DIMENSIONAL_EXPONENTS(0.,0.,0.,0.,0.,0.,0.);
#287=(
CONVERSION_BASED_UNIT('degree',#289)
NAMED_UNIT(#286)
PLANE_ANGLE_UNIT()
);
#288=(
NAMED_UNIT(*)
PLANE_ANGLE_UNIT()
SI_UNIT($,.RADIAN.)
);
#289=PLANE_ANGLE_MEASURE_WITH_UNIT(PLANE_ANGLE_MEASURE(0.01745329252),#288);
#290=SHAPE_DEFINITION_REPRESENTATION(#291,#292);
#291=PRODUCT_DEFINITION_SHAPE('',$,#294);
#292=SHAPE_REPRESENTATION('',(#159),#282);
#293=PRODUCT_DEFINITION_CONTEXT('part definition',#298,'design');
#294=PRODUCT_DEFINITION('200.169.006.10_Adapterring_M27x05',
'200.169.006.10_Adapterring_M27x05',#295,#293);
#295=PRODUCT_DEFINITION_FORMATION('',$,#300);
#296=PRODUCT_RELATED_PRODUCT_CATEGORY(
'200.169.006.10_Adapterring_M27x05','200.169.006.10_Adapterring_M27x05',
(#300));
#297=APPLICATION_PROTOCOL_DEFINITION('international standard',
'automotive_design',2009,#298);
#298=APPLICATION_CONTEXT(
'Core Data for Automotive Mechanical Design Process');
#299=PRODUCT_CONTEXT('part definition',#298,'mechanical');
#300=PRODUCT('200.169.006.10_Adapterring_M27x05',
'200.169.006.10_Adapterring_M27x05',$,(#299));
#301=PRESENTATION_STYLE_ASSIGNMENT((#302));
#302=SURFACE_STYLE_USAGE(.BOTH.,#303);
#303=SURFACE_SIDE_STYLE($,(#304));
#304=SURFACE_STYLE_FILL_AREA(#305);
#305=FILL_AREA_STYLE($,(#306));
#306=FILL_AREA_STYLE_COLOUR($,#307);
#307=COLOUR_RGB('',0.16078431372549,0.16078431372549,0.16078431372549);
ENDSEC;
END-ISO-10303-21;
