ISO-10303-21;
HEADER;
/* Generated by software containing ST-Developer
 * from STEP Tools, Inc. (www.steptools.com) 
 */

FILE_DESCRIPTION(
/* description */ ('Montagewinkel Objektivhalter',
'CAx-IF Rec.Pracs.---Representation and Presentation of Product Manufa
cturing Information (PMI)---3.8---2014-02-18'),
/* implementation_level */ '2;1');

FILE_NAME(
/* name */ 
'V:\\Produktentwicklung\\CAD\\Zubeh\X\F6r\\TechDok\\Objektivhalter\\19
0.163.000.10_Montagewinkel\\3D-Modell\\Webseite\\190.163.001.10_Montag
ewinkel.stp',
/* time_stamp */ '2022-12-21T12:15:03+01:00',
/* author */ ('t.seeland'),
/* organization */ ('Vision & Control'),
/* preprocessor_version */ 'ST-DEVELOPER v16.5',
/* originating_system */ 'Autodesk Inventor 2017',
/* authorisation */ '');

FILE_SCHEMA (('AP242_MANAGED_MODEL_BASED_3D_ENGINEERING_MIM_LF { 1 0 10303 442 1 1 4 }'));
ENDSEC;

DATA;
#10=MECHANICAL_DESIGN_GEOMETRIC_PRESENTATION_REPRESENTATION('',(#13),#593);
#11=SHAPE_REPRESENTATION_RELATIONSHIP('SRR','None',#602,#12);
#12=ADVANCED_BREP_SHAPE_REPRESENTATION('',(#14),#592);
#13=STYLED_ITEM('',(#611),#14);
#14=MANIFOLD_SOLID_BREP('Volumenk\X\F6rper1',#347);
#15=FACE_BOUND('',#62,.T.);
#16=FACE_BOUND('',#63,.T.);
#17=FACE_BOUND('',#68,.T.);
#18=FACE_BOUND('',#69,.T.);
#19=FACE_BOUND('',#70,.T.);
#20=FACE_BOUND('',#74,.T.);
#21=FACE_BOUND('',#76,.T.);
#22=FACE_BOUND('',#78,.T.);
#23=FACE_BOUND('',#80,.T.);
#24=FACE_BOUND('',#82,.T.);
#25=FACE_BOUND('',#84,.T.);
#26=FACE_BOUND('',#86,.T.);
#27=FACE_BOUND('',#90,.T.);
#28=FACE_BOUND('',#91,.T.);
#29=FACE_BOUND('',#93,.T.);
#30=FACE_BOUND('',#94,.T.);
#31=FACE_BOUND('',#95,.T.);
#32=PLANE('',#358);
#33=PLANE('',#362);
#34=PLANE('',#368);
#35=PLANE('',#373);
#36=PLANE('',#378);
#37=PLANE('',#390);
#38=PLANE('',#391);
#39=PLANE('',#392);
#40=PLANE('',#393);
#41=FACE_OUTER_BOUND('',#60,.T.);
#42=FACE_OUTER_BOUND('',#61,.T.);
#43=FACE_OUTER_BOUND('',#64,.T.);
#44=FACE_OUTER_BOUND('',#65,.T.);
#45=FACE_OUTER_BOUND('',#66,.T.);
#46=FACE_OUTER_BOUND('',#67,.T.);
#47=FACE_OUTER_BOUND('',#71,.T.);
#48=FACE_OUTER_BOUND('',#72,.T.);
#49=FACE_OUTER_BOUND('',#73,.T.);
#50=FACE_OUTER_BOUND('',#75,.T.);
#51=FACE_OUTER_BOUND('',#77,.T.);
#52=FACE_OUTER_BOUND('',#79,.T.);
#53=FACE_OUTER_BOUND('',#81,.T.);
#54=FACE_OUTER_BOUND('',#83,.T.);
#55=FACE_OUTER_BOUND('',#85,.T.);
#56=FACE_OUTER_BOUND('',#87,.T.);
#57=FACE_OUTER_BOUND('',#88,.T.);
#58=FACE_OUTER_BOUND('',#89,.T.);
#59=FACE_OUTER_BOUND('',#92,.T.);
#60=EDGE_LOOP('',(#234,#235,#236,#237));
#61=EDGE_LOOP('',(#238,#239,#240,#241,#242,#243));
#62=EDGE_LOOP('',(#244));
#63=EDGE_LOOP('',(#245));
#64=EDGE_LOOP('',(#246,#247,#248,#249));
#65=EDGE_LOOP('',(#250,#251,#252,#253));
#66=EDGE_LOOP('',(#254,#255,#256,#257));
#67=EDGE_LOOP('',(#258,#259,#260,#261,#262,#263));
#68=EDGE_LOOP('',(#264));
#69=EDGE_LOOP('',(#265));
#70=EDGE_LOOP('',(#266));
#71=EDGE_LOOP('',(#267,#268,#269,#270));
#72=EDGE_LOOP('',(#271,#272,#273,#274));
#73=EDGE_LOOP('',(#275));
#74=EDGE_LOOP('',(#276));
#75=EDGE_LOOP('',(#277));
#76=EDGE_LOOP('',(#278));
#77=EDGE_LOOP('',(#279));
#78=EDGE_LOOP('',(#280));
#79=EDGE_LOOP('',(#281));
#80=EDGE_LOOP('',(#282));
#81=EDGE_LOOP('',(#283));
#82=EDGE_LOOP('',(#284));
#83=EDGE_LOOP('',(#285));
#84=EDGE_LOOP('',(#286));
#85=EDGE_LOOP('',(#287));
#86=EDGE_LOOP('',(#288));
#87=EDGE_LOOP('',(#289,#290,#291,#292,#293,#294));
#88=EDGE_LOOP('',(#295,#296,#297,#298,#299,#300));
#89=EDGE_LOOP('',(#301,#302,#303,#304,#305,#306));
#90=EDGE_LOOP('',(#307));
#91=EDGE_LOOP('',(#308));
#92=EDGE_LOOP('',(#309,#310,#311,#312,#313,#314));
#93=EDGE_LOOP('',(#315));
#94=EDGE_LOOP('',(#316));
#95=EDGE_LOOP('',(#317));
#96=LINE('',#502,#118);
#97=LINE('',#505,#119);
#98=LINE('',#508,#120);
#99=LINE('',#512,#121);
#100=LINE('',#514,#122);
#101=LINE('',#515,#123);
#102=LINE('',#522,#124);
#103=LINE('',#523,#125);
#104=LINE('',#527,#126);
#105=LINE('',#533,#127);
#106=LINE('',#536,#128);
#107=LINE('',#539,#129);
#108=LINE('',#542,#130);
#109=LINE('',#543,#131);
#110=LINE('',#552,#132);
#111=LINE('',#553,#133);
#112=LINE('',#557,#134);
#113=LINE('',#581,#135);
#114=LINE('',#582,#136);
#115=LINE('',#585,#137);
#116=LINE('',#586,#138);
#117=LINE('',#588,#139);
#118=VECTOR('',#400,10.);
#119=VECTOR('',#403,10.);
#120=VECTOR('',#406,10.);
#121=VECTOR('',#409,10.);
#122=VECTOR('',#410,10.);
#123=VECTOR('',#411,10.);
#124=VECTOR('',#418,10.);
#125=VECTOR('',#419,10.);
#126=VECTOR('',#424,10.);
#127=VECTOR('',#429,10.);
#128=VECTOR('',#432,10.);
#129=VECTOR('',#435,10.);
#130=VECTOR('',#438,10.);
#131=VECTOR('',#439,10.);
#132=VECTOR('',#448,10.);
#133=VECTOR('',#449,10.);
#134=VECTOR('',#454,10.);
#135=VECTOR('',#485,10.);
#136=VECTOR('',#486,10.);
#137=VECTOR('',#489,10.);
#138=VECTOR('',#490,10.);
#139=VECTOR('',#493,10.);
#140=CIRCLE('',#356,4.);
#141=CIRCLE('',#357,4.);
#142=CIRCLE('',#359,4.);
#143=CIRCLE('',#360,2.75);
#144=CIRCLE('',#361,2.75);
#145=CIRCLE('',#364,4.);
#146=CIRCLE('',#366,4.);
#147=CIRCLE('',#367,4.);
#148=CIRCLE('',#369,4.);
#149=CIRCLE('',#370,5.2);
#150=CIRCLE('',#371,2.25);
#151=CIRCLE('',#372,2.25);
#152=CIRCLE('',#375,4.);
#153=CIRCLE('',#377,5.2);
#154=CIRCLE('',#379,3.3);
#155=CIRCLE('',#381,2.75);
#156=CIRCLE('',#383,2.75);
#157=CIRCLE('',#385,3.3);
#158=CIRCLE('',#387,2.25);
#159=CIRCLE('',#389,2.25);
#160=VERTEX_POINT('',#498);
#161=VERTEX_POINT('',#499);
#162=VERTEX_POINT('',#501);
#163=VERTEX_POINT('',#503);
#164=VERTEX_POINT('',#507);
#165=VERTEX_POINT('',#509);
#166=VERTEX_POINT('',#511);
#167=VERTEX_POINT('',#513);
#168=VERTEX_POINT('',#516);
#169=VERTEX_POINT('',#518);
#170=VERTEX_POINT('',#521);
#171=VERTEX_POINT('',#525);
#172=VERTEX_POINT('',#529);
#173=VERTEX_POINT('',#530);
#174=VERTEX_POINT('',#532);
#175=VERTEX_POINT('',#534);
#176=VERTEX_POINT('',#538);
#177=VERTEX_POINT('',#540);
#178=VERTEX_POINT('',#544);
#179=VERTEX_POINT('',#546);
#180=VERTEX_POINT('',#548);
#181=VERTEX_POINT('',#551);
#182=VERTEX_POINT('',#555);
#183=VERTEX_POINT('',#559);
#184=VERTEX_POINT('',#562);
#185=VERTEX_POINT('',#565);
#186=VERTEX_POINT('',#568);
#187=VERTEX_POINT('',#571);
#188=VERTEX_POINT('',#574);
#189=VERTEX_POINT('',#577);
#190=VERTEX_POINT('',#580);
#191=VERTEX_POINT('',#584);
#192=EDGE_CURVE('',#160,#161,#140,.T.);
#193=EDGE_CURVE('',#161,#162,#96,.T.);
#194=EDGE_CURVE('',#162,#163,#141,.T.);
#195=EDGE_CURVE('',#163,#160,#97,.T.);
#196=EDGE_CURVE('',#164,#162,#98,.T.);
#197=EDGE_CURVE('',#165,#164,#142,.T.);
#198=EDGE_CURVE('',#166,#165,#99,.T.);
#199=EDGE_CURVE('',#167,#166,#100,.T.);
#200=EDGE_CURVE('',#167,#163,#101,.T.);
#201=EDGE_CURVE('',#168,#168,#143,.T.);
#202=EDGE_CURVE('',#169,#169,#144,.T.);
#203=EDGE_CURVE('',#161,#170,#102,.T.);
#204=EDGE_CURVE('',#164,#170,#103,.T.);
#205=EDGE_CURVE('',#170,#171,#145,.T.);
#206=EDGE_CURVE('',#171,#165,#104,.T.);
#207=EDGE_CURVE('',#172,#173,#146,.T.);
#208=EDGE_CURVE('',#173,#174,#105,.T.);
#209=EDGE_CURVE('',#174,#175,#147,.T.);
#210=EDGE_CURVE('',#175,#172,#106,.T.);
#211=EDGE_CURVE('',#172,#176,#107,.T.);
#212=EDGE_CURVE('',#177,#176,#148,.T.);
#213=EDGE_CURVE('',#177,#167,#108,.T.);
#214=EDGE_CURVE('',#166,#173,#109,.T.);
#215=EDGE_CURVE('',#178,#178,#149,.T.);
#216=EDGE_CURVE('',#179,#179,#150,.T.);
#217=EDGE_CURVE('',#180,#180,#151,.T.);
#218=EDGE_CURVE('',#175,#181,#110,.T.);
#219=EDGE_CURVE('',#176,#181,#111,.T.);
#220=EDGE_CURVE('',#181,#182,#152,.T.);
#221=EDGE_CURVE('',#182,#177,#112,.T.);
#222=EDGE_CURVE('',#183,#183,#153,.T.);
#223=EDGE_CURVE('',#184,#184,#154,.T.);
#224=EDGE_CURVE('',#185,#185,#155,.T.);
#225=EDGE_CURVE('',#186,#186,#156,.T.);
#226=EDGE_CURVE('',#187,#187,#157,.T.);
#227=EDGE_CURVE('',#188,#188,#158,.T.);
#228=EDGE_CURVE('',#189,#189,#159,.T.);
#229=EDGE_CURVE('',#182,#190,#113,.T.);
#230=EDGE_CURVE('',#190,#160,#114,.T.);
#231=EDGE_CURVE('',#191,#171,#115,.T.);
#232=EDGE_CURVE('',#191,#174,#116,.T.);
#233=EDGE_CURVE('',#190,#191,#117,.T.);
#234=ORIENTED_EDGE('',*,*,#192,.T.);
#235=ORIENTED_EDGE('',*,*,#193,.T.);
#236=ORIENTED_EDGE('',*,*,#194,.T.);
#237=ORIENTED_EDGE('',*,*,#195,.T.);
#238=ORIENTED_EDGE('',*,*,#194,.F.);
#239=ORIENTED_EDGE('',*,*,#196,.F.);
#240=ORIENTED_EDGE('',*,*,#197,.F.);
#241=ORIENTED_EDGE('',*,*,#198,.F.);
#242=ORIENTED_EDGE('',*,*,#199,.F.);
#243=ORIENTED_EDGE('',*,*,#200,.T.);
#244=ORIENTED_EDGE('',*,*,#201,.T.);
#245=ORIENTED_EDGE('',*,*,#202,.T.);
#246=ORIENTED_EDGE('',*,*,#193,.F.);
#247=ORIENTED_EDGE('',*,*,#203,.T.);
#248=ORIENTED_EDGE('',*,*,#204,.F.);
#249=ORIENTED_EDGE('',*,*,#196,.T.);
#250=ORIENTED_EDGE('',*,*,#197,.T.);
#251=ORIENTED_EDGE('',*,*,#204,.T.);
#252=ORIENTED_EDGE('',*,*,#205,.T.);
#253=ORIENTED_EDGE('',*,*,#206,.T.);
#254=ORIENTED_EDGE('',*,*,#207,.T.);
#255=ORIENTED_EDGE('',*,*,#208,.T.);
#256=ORIENTED_EDGE('',*,*,#209,.T.);
#257=ORIENTED_EDGE('',*,*,#210,.T.);
#258=ORIENTED_EDGE('',*,*,#207,.F.);
#259=ORIENTED_EDGE('',*,*,#211,.T.);
#260=ORIENTED_EDGE('',*,*,#212,.F.);
#261=ORIENTED_EDGE('',*,*,#213,.T.);
#262=ORIENTED_EDGE('',*,*,#199,.T.);
#263=ORIENTED_EDGE('',*,*,#214,.T.);
#264=ORIENTED_EDGE('',*,*,#215,.T.);
#265=ORIENTED_EDGE('',*,*,#216,.T.);
#266=ORIENTED_EDGE('',*,*,#217,.T.);
#267=ORIENTED_EDGE('',*,*,#210,.F.);
#268=ORIENTED_EDGE('',*,*,#218,.T.);
#269=ORIENTED_EDGE('',*,*,#219,.F.);
#270=ORIENTED_EDGE('',*,*,#211,.F.);
#271=ORIENTED_EDGE('',*,*,#212,.T.);
#272=ORIENTED_EDGE('',*,*,#219,.T.);
#273=ORIENTED_EDGE('',*,*,#220,.T.);
#274=ORIENTED_EDGE('',*,*,#221,.T.);
#275=ORIENTED_EDGE('',*,*,#222,.T.);
#276=ORIENTED_EDGE('',*,*,#215,.F.);
#277=ORIENTED_EDGE('',*,*,#222,.F.);
#278=ORIENTED_EDGE('',*,*,#223,.F.);
#279=ORIENTED_EDGE('',*,*,#201,.F.);
#280=ORIENTED_EDGE('',*,*,#224,.F.);
#281=ORIENTED_EDGE('',*,*,#202,.F.);
#282=ORIENTED_EDGE('',*,*,#225,.F.);
#283=ORIENTED_EDGE('',*,*,#223,.T.);
#284=ORIENTED_EDGE('',*,*,#226,.F.);
#285=ORIENTED_EDGE('',*,*,#217,.F.);
#286=ORIENTED_EDGE('',*,*,#227,.F.);
#287=ORIENTED_EDGE('',*,*,#216,.F.);
#288=ORIENTED_EDGE('',*,*,#228,.F.);
#289=ORIENTED_EDGE('',*,*,#195,.F.);
#290=ORIENTED_EDGE('',*,*,#200,.F.);
#291=ORIENTED_EDGE('',*,*,#213,.F.);
#292=ORIENTED_EDGE('',*,*,#221,.F.);
#293=ORIENTED_EDGE('',*,*,#229,.T.);
#294=ORIENTED_EDGE('',*,*,#230,.T.);
#295=ORIENTED_EDGE('',*,*,#206,.F.);
#296=ORIENTED_EDGE('',*,*,#231,.F.);
#297=ORIENTED_EDGE('',*,*,#232,.T.);
#298=ORIENTED_EDGE('',*,*,#208,.F.);
#299=ORIENTED_EDGE('',*,*,#214,.F.);
#300=ORIENTED_EDGE('',*,*,#198,.T.);
#301=ORIENTED_EDGE('',*,*,#192,.F.);
#302=ORIENTED_EDGE('',*,*,#230,.F.);
#303=ORIENTED_EDGE('',*,*,#233,.T.);
#304=ORIENTED_EDGE('',*,*,#231,.T.);
#305=ORIENTED_EDGE('',*,*,#205,.F.);
#306=ORIENTED_EDGE('',*,*,#203,.F.);
#307=ORIENTED_EDGE('',*,*,#224,.T.);
#308=ORIENTED_EDGE('',*,*,#225,.T.);
#309=ORIENTED_EDGE('',*,*,#209,.F.);
#310=ORIENTED_EDGE('',*,*,#232,.F.);
#311=ORIENTED_EDGE('',*,*,#233,.F.);
#312=ORIENTED_EDGE('',*,*,#229,.F.);
#313=ORIENTED_EDGE('',*,*,#220,.F.);
#314=ORIENTED_EDGE('',*,*,#218,.F.);
#315=ORIENTED_EDGE('',*,*,#226,.T.);
#316=ORIENTED_EDGE('',*,*,#227,.T.);
#317=ORIENTED_EDGE('',*,*,#228,.T.);
#318=CYLINDRICAL_SURFACE('',#355,4.);
#319=CYLINDRICAL_SURFACE('',#363,4.);
#320=CYLINDRICAL_SURFACE('',#365,4.);
#321=CYLINDRICAL_SURFACE('',#374,4.);
#322=CYLINDRICAL_SURFACE('',#376,5.2);
#323=CYLINDRICAL_SURFACE('',#380,2.75);
#324=CYLINDRICAL_SURFACE('',#382,2.75);
#325=CYLINDRICAL_SURFACE('',#384,3.3);
#326=CYLINDRICAL_SURFACE('',#386,2.25);
#327=CYLINDRICAL_SURFACE('',#388,2.25);
#328=ADVANCED_FACE('',(#41),#318,.T.);
#329=ADVANCED_FACE('',(#42,#15,#16),#32,.T.);
#330=ADVANCED_FACE('',(#43),#33,.T.);
#331=ADVANCED_FACE('',(#44),#319,.T.);
#332=ADVANCED_FACE('',(#45),#320,.T.);
#333=ADVANCED_FACE('',(#46,#17,#18,#19),#34,.T.);
#334=ADVANCED_FACE('',(#47),#35,.T.);
#335=ADVANCED_FACE('',(#48),#321,.T.);
#336=ADVANCED_FACE('',(#49,#20),#322,.F.);
#337=ADVANCED_FACE('',(#50,#21),#36,.T.);
#338=ADVANCED_FACE('',(#51,#22),#323,.F.);
#339=ADVANCED_FACE('',(#52,#23),#324,.F.);
#340=ADVANCED_FACE('',(#53,#24),#325,.F.);
#341=ADVANCED_FACE('',(#54,#25),#326,.F.);
#342=ADVANCED_FACE('',(#55,#26),#327,.F.);
#343=ADVANCED_FACE('',(#56),#37,.T.);
#344=ADVANCED_FACE('',(#57),#38,.T.);
#345=ADVANCED_FACE('',(#58,#27,#28),#39,.T.);
#346=ADVANCED_FACE('',(#59,#29,#30,#31),#40,.F.);
#347=CLOSED_SHELL('',(#328,#329,#330,#331,#332,#333,#334,#335,#336,#337,
#338,#339,#340,#341,#342,#343,#344,#345,#346));
#348=DATE_TIME_ROLE('creation_date');
#349=APPLIED_DATE_AND_TIME_ASSIGNMENT(#350,#348,(#604));
#350=DATE_AND_TIME(#351,#352);
#351=CALENDAR_DATE(2022,18,7);
#352=LOCAL_TIME(12,22,12.,#353);
#353=COORDINATED_UNIVERSAL_TIME_OFFSET(0,0,.BEHIND.);
#354=AXIS2_PLACEMENT_3D('placement',#496,#394,#395);
#355=AXIS2_PLACEMENT_3D('',#497,#396,#397);
#356=AXIS2_PLACEMENT_3D('',#500,#398,#399);
#357=AXIS2_PLACEMENT_3D('',#504,#401,#402);
#358=AXIS2_PLACEMENT_3D('',#506,#404,#405);
#359=AXIS2_PLACEMENT_3D('',#510,#407,#408);
#360=AXIS2_PLACEMENT_3D('',#517,#412,#413);
#361=AXIS2_PLACEMENT_3D('',#519,#414,#415);
#362=AXIS2_PLACEMENT_3D('',#520,#416,#417);
#363=AXIS2_PLACEMENT_3D('',#524,#420,#421);
#364=AXIS2_PLACEMENT_3D('',#526,#422,#423);
#365=AXIS2_PLACEMENT_3D('',#528,#425,#426);
#366=AXIS2_PLACEMENT_3D('',#531,#427,#428);
#367=AXIS2_PLACEMENT_3D('',#535,#430,#431);
#368=AXIS2_PLACEMENT_3D('',#537,#433,#434);
#369=AXIS2_PLACEMENT_3D('',#541,#436,#437);
#370=AXIS2_PLACEMENT_3D('',#545,#440,#441);
#371=AXIS2_PLACEMENT_3D('',#547,#442,#443);
#372=AXIS2_PLACEMENT_3D('',#549,#444,#445);
#373=AXIS2_PLACEMENT_3D('',#550,#446,#447);
#374=AXIS2_PLACEMENT_3D('',#554,#450,#451);
#375=AXIS2_PLACEMENT_3D('',#556,#452,#453);
#376=AXIS2_PLACEMENT_3D('',#558,#455,#456);
#377=AXIS2_PLACEMENT_3D('',#560,#457,#458);
#378=AXIS2_PLACEMENT_3D('',#561,#459,#460);
#379=AXIS2_PLACEMENT_3D('',#563,#461,#462);
#380=AXIS2_PLACEMENT_3D('',#564,#463,#464);
#381=AXIS2_PLACEMENT_3D('',#566,#465,#466);
#382=AXIS2_PLACEMENT_3D('',#567,#467,#468);
#383=AXIS2_PLACEMENT_3D('',#569,#469,#470);
#384=AXIS2_PLACEMENT_3D('',#570,#471,#472);
#385=AXIS2_PLACEMENT_3D('',#572,#473,#474);
#386=AXIS2_PLACEMENT_3D('',#573,#475,#476);
#387=AXIS2_PLACEMENT_3D('',#575,#477,#478);
#388=AXIS2_PLACEMENT_3D('',#576,#479,#480);
#389=AXIS2_PLACEMENT_3D('',#578,#481,#482);
#390=AXIS2_PLACEMENT_3D('',#579,#483,#484);
#391=AXIS2_PLACEMENT_3D('',#583,#487,#488);
#392=AXIS2_PLACEMENT_3D('',#587,#491,#492);
#393=AXIS2_PLACEMENT_3D('',#589,#494,#495);
#394=DIRECTION('axis',(0.,0.,1.));
#395=DIRECTION('refdir',(1.,0.,0.));
#396=DIRECTION('center_axis',(-4.16333634234434E-16,1.,0.));
#397=DIRECTION('ref_axis',(0.707106781186548,2.94392336003208E-16,0.707106781186547));
#398=DIRECTION('center_axis',(7.93016446160826E-17,-1.,0.));
#399=DIRECTION('ref_axis',(0.707106781186548,2.94392336003208E-16,0.707106781186547));
#400=DIRECTION('',(4.16333634234434E-16,-1.,0.));
#401=DIRECTION('center_axis',(-1.58603289232165E-16,1.,0.));
#402=DIRECTION('ref_axis',(0.707106781186548,2.94392336003208E-16,0.707106781186547));
#403=DIRECTION('',(-4.16333634234434E-16,1.,0.));
#404=DIRECTION('center_axis',(1.58603289232165E-16,-1.,0.));
#405=DIRECTION('ref_axis',(1.,1.77635683940025E-16,0.));
#406=DIRECTION('',(1.,1.58603289232165E-16,0.));
#407=DIRECTION('center_axis',(-1.58603289232165E-16,1.,0.));
#408=DIRECTION('ref_axis',(-0.707106781186548,-7.85046229341888E-16,0.707106781186547));
#409=DIRECTION('',(0.,0.,1.));
#410=DIRECTION('',(-1.,-1.58603289232165E-16,0.));
#411=DIRECTION('',(0.,0.,1.));
#412=DIRECTION('center_axis',(-1.58603289232165E-16,1.,0.));
#413=DIRECTION('ref_axis',(-1.,-9.25185853854297E-17,0.));
#414=DIRECTION('center_axis',(-1.58603289232165E-16,1.,0.));
#415=DIRECTION('ref_axis',(-1.,-6.93889390390723E-17,0.));
#416=DIRECTION('center_axis',(0.,0.,1.));
#417=DIRECTION('ref_axis',(1.,0.,0.));
#418=DIRECTION('',(-1.,-1.58603289232165E-16,0.));
#419=DIRECTION('',(-2.77555756156289E-16,1.,0.));
#420=DIRECTION('center_axis',(2.77555756156289E-16,-1.,0.));
#421=DIRECTION('ref_axis',(-0.707106781186548,-7.85046229341888E-16,0.707106781186547));
#422=DIRECTION('center_axis',(7.93016446160826E-17,-1.,0.));
#423=DIRECTION('ref_axis',(-0.707106781186548,-7.85046229341888E-16,0.707106781186547));
#424=DIRECTION('',(2.77555756156289E-16,-1.,0.));
#425=DIRECTION('center_axis',(0.,0.,1.));
#426=DIRECTION('ref_axis',(-0.707106781186548,-0.707106781186548,0.));
#427=DIRECTION('center_axis',(0.,0.,-1.));
#428=DIRECTION('ref_axis',(-0.707106781186548,-0.707106781186548,0.));
#429=DIRECTION('',(0.,0.,-1.));
#430=DIRECTION('center_axis',(0.,0.,1.));
#431=DIRECTION('ref_axis',(-0.707106781186548,-0.707106781186548,0.));
#432=DIRECTION('',(0.,0.,1.));
#433=DIRECTION('center_axis',(0.,0.,1.));
#434=DIRECTION('ref_axis',(1.,0.,0.));
#435=DIRECTION('',(1.,2.37904933848248E-16,0.));
#436=DIRECTION('center_axis',(0.,0.,-1.));
#437=DIRECTION('ref_axis',(0.707106781186548,-0.707106781186547,0.));
#438=DIRECTION('',(-4.16333634234434E-16,1.,0.));
#439=DIRECTION('',(2.77555756156289E-16,-1.,0.));
#440=DIRECTION('center_axis',(0.,0.,-1.));
#441=DIRECTION('ref_axis',(-1.,0.,0.));
#442=DIRECTION('center_axis',(0.,0.,-1.));
#443=DIRECTION('ref_axis',(-1.,0.,0.));
#444=DIRECTION('center_axis',(0.,0.,-1.));
#445=DIRECTION('ref_axis',(-1.,0.,0.));
#446=DIRECTION('center_axis',(2.37904933848248E-16,-1.,0.));
#447=DIRECTION('ref_axis',(1.,1.77635683940025E-16,0.));
#448=DIRECTION('',(1.,2.37904933848248E-16,0.));
#449=DIRECTION('',(0.,0.,-1.));
#450=DIRECTION('center_axis',(0.,0.,1.));
#451=DIRECTION('ref_axis',(0.707106781186548,-0.707106781186547,0.));
#452=DIRECTION('center_axis',(0.,0.,1.));
#453=DIRECTION('ref_axis',(0.707106781186548,-0.707106781186547,0.));
#454=DIRECTION('',(0.,0.,1.));
#455=DIRECTION('center_axis',(0.,0.,-1.));
#456=DIRECTION('ref_axis',(-1.,0.,0.));
#457=DIRECTION('center_axis',(0.,0.,-1.));
#458=DIRECTION('ref_axis',(-1.,0.,0.));
#459=DIRECTION('center_axis',(0.,0.,1.));
#460=DIRECTION('ref_axis',(1.,0.,0.));
#461=DIRECTION('center_axis',(0.,0.,1.));
#462=DIRECTION('ref_axis',(-1.,0.,0.));
#463=DIRECTION('center_axis',(9.25185853854297E-17,-1.,0.));
#464=DIRECTION('ref_axis',(-1.,-9.25185853854297E-17,0.));
#465=DIRECTION('center_axis',(7.93016446160826E-17,-1.,0.));
#466=DIRECTION('ref_axis',(-1.,-9.25185853854297E-17,0.));
#467=DIRECTION('center_axis',(6.93889390390723E-17,-1.,0.));
#468=DIRECTION('ref_axis',(-1.,-6.93889390390723E-17,0.));
#469=DIRECTION('center_axis',(7.93016446160826E-17,-1.,0.));
#470=DIRECTION('ref_axis',(-1.,-6.93889390390723E-17,0.));
#471=DIRECTION('center_axis',(0.,0.,1.));
#472=DIRECTION('ref_axis',(-1.,0.,0.));
#473=DIRECTION('center_axis',(0.,0.,1.));
#474=DIRECTION('ref_axis',(-1.,0.,0.));
#475=DIRECTION('center_axis',(0.,0.,1.));
#476=DIRECTION('ref_axis',(-1.,0.,0.));
#477=DIRECTION('center_axis',(0.,0.,1.));
#478=DIRECTION('ref_axis',(-1.,0.,0.));
#479=DIRECTION('center_axis',(0.,0.,1.));
#480=DIRECTION('ref_axis',(-1.,0.,0.));
#481=DIRECTION('center_axis',(0.,0.,1.));
#482=DIRECTION('ref_axis',(-1.,0.,0.));
#483=DIRECTION('center_axis',(1.,4.16333634234434E-16,0.));
#484=DIRECTION('ref_axis',(-3.5527136788005E-16,1.,0.));
#485=DIRECTION('',(-4.16333634234434E-16,1.,0.));
#486=DIRECTION('',(0.,0.,1.));
#487=DIRECTION('center_axis',(-1.,-2.77555756156289E-16,0.));
#488=DIRECTION('ref_axis',(3.5527136788005E-16,-1.,0.));
#489=DIRECTION('',(0.,0.,1.));
#490=DIRECTION('',(2.77555756156289E-16,-1.,0.));
#491=DIRECTION('center_axis',(-7.93016446160826E-17,1.,0.));
#492=DIRECTION('ref_axis',(-1.,0.,0.));
#493=DIRECTION('',(-1.,-7.93016446160826E-17,0.));
#494=DIRECTION('center_axis',(0.,0.,1.));
#495=DIRECTION('ref_axis',(1.,0.,0.));
#496=CARTESIAN_POINT('',(0.,0.,0.));
#497=CARTESIAN_POINT('Origin',(10.,3.19189119579733E-15,18.));
#498=CARTESIAN_POINT('',(14.,18.,18.));
#499=CARTESIAN_POINT('',(10.,18.,22.));
#500=CARTESIAN_POINT('Origin',(10.,18.,18.));
#501=CARTESIAN_POINT('',(10.,10.,22.));
#502=CARTESIAN_POINT('',(10.,3.19189119579733E-15,22.));
#503=CARTESIAN_POINT('',(14.,10.,18.));
#504=CARTESIAN_POINT('Origin',(10.,10.,18.));
#505=CARTESIAN_POINT('',(14.,4.85722573273506E-15,18.));
#506=CARTESIAN_POINT('Origin',(-14.,10.,10.));
#507=CARTESIAN_POINT('',(-10.,10.,22.));
#508=CARTESIAN_POINT('',(-14.,10.,22.));
#509=CARTESIAN_POINT('',(-14.,10.,18.));
#510=CARTESIAN_POINT('Origin',(-10.,10.,18.));
#511=CARTESIAN_POINT('',(-14.,10.,10.));
#512=CARTESIAN_POINT('',(-14.,10.,10.));
#513=CARTESIAN_POINT('',(14.,10.,10.));
#514=CARTESIAN_POINT('',(-7.,10.,10.));
#515=CARTESIAN_POINT('',(14.,10.,10.));
#516=CARTESIAN_POINT('',(10.75,10.,16.));
#517=CARTESIAN_POINT('Origin',(8.,10.,16.));
#518=CARTESIAN_POINT('',(-5.25,10.,16.));
#519=CARTESIAN_POINT('Origin',(-8.,10.,16.));
#520=CARTESIAN_POINT('Origin',(-4.44089209850063E-15,14.,22.));
#521=CARTESIAN_POINT('',(-10.,18.,22.));
#522=CARTESIAN_POINT('',(14.,18.,22.));
#523=CARTESIAN_POINT('',(-10.,16.,22.));
#524=CARTESIAN_POINT('Origin',(-10.,16.,18.));
#525=CARTESIAN_POINT('',(-14.,18.,18.));
#526=CARTESIAN_POINT('Origin',(-10.,18.,18.));
#527=CARTESIAN_POINT('',(-14.,16.,18.));
#528=CARTESIAN_POINT('Origin',(-10.,-10.,0.));
#529=CARTESIAN_POINT('',(-10.,-14.,10.));
#530=CARTESIAN_POINT('',(-14.,-10.,10.));
#531=CARTESIAN_POINT('Origin',(-10.,-10.,10.));
#532=CARTESIAN_POINT('',(-14.,-10.,0.));
#533=CARTESIAN_POINT('',(-14.,-10.,0.));
#534=CARTESIAN_POINT('',(-10.,-14.,0.));
#535=CARTESIAN_POINT('Origin',(-10.,-10.,0.));
#536=CARTESIAN_POINT('',(-10.,-14.,0.));
#537=CARTESIAN_POINT('Origin',(0.,2.,10.));
#538=CARTESIAN_POINT('',(10.,-14.,10.));
#539=CARTESIAN_POINT('',(-14.,-14.,10.));
#540=CARTESIAN_POINT('',(14.,-10.,10.));
#541=CARTESIAN_POINT('Origin',(10.,-10.,10.));
#542=CARTESIAN_POINT('',(14.,-14.,10.));
#543=CARTESIAN_POINT('',(-14.,18.,10.));
#544=CARTESIAN_POINT('',(5.2,6.36816335556624E-16,10.));
#545=CARTESIAN_POINT('Origin',(0.,0.,10.));
#546=CARTESIAN_POINT('',(10.25,-8.,10.));
#547=CARTESIAN_POINT('Origin',(8.,-8.,10.));
#548=CARTESIAN_POINT('',(-5.75,-8.,10.));
#549=CARTESIAN_POINT('Origin',(-8.,-8.,10.));
#550=CARTESIAN_POINT('Origin',(-14.,-14.,0.));
#551=CARTESIAN_POINT('',(10.,-14.,0.));
#552=CARTESIAN_POINT('',(-14.,-14.,0.));
#553=CARTESIAN_POINT('',(10.,-14.,0.));
#554=CARTESIAN_POINT('Origin',(10.,-10.,0.));
#555=CARTESIAN_POINT('',(14.,-10.,0.));
#556=CARTESIAN_POINT('Origin',(10.,-10.,0.));
#557=CARTESIAN_POINT('',(14.,-10.,0.));
#558=CARTESIAN_POINT('Origin',(0.,0.,10.));
#559=CARTESIAN_POINT('',(5.2,6.36816335556624E-16,3.5));
#560=CARTESIAN_POINT('Origin',(0.,0.,3.5));
#561=CARTESIAN_POINT('Origin',(-2.30988384473494E-16,0.,3.5));
#562=CARTESIAN_POINT('',(3.3,4.04133443718627E-16,3.5));
#563=CARTESIAN_POINT('Origin',(0.,0.,3.5));
#564=CARTESIAN_POINT('Origin',(8.,18.,16.));
#565=CARTESIAN_POINT('',(10.75,18.,16.));
#566=CARTESIAN_POINT('Origin',(8.,18.,16.));
#567=CARTESIAN_POINT('Origin',(-8.,18.,16.));
#568=CARTESIAN_POINT('',(-5.25,18.,16.));
#569=CARTESIAN_POINT('Origin',(-8.,18.,16.));
#570=CARTESIAN_POINT('Origin',(0.,0.,0.));
#571=CARTESIAN_POINT('',(3.3,4.04133443718627E-16,0.));
#572=CARTESIAN_POINT('Origin',(0.,0.,0.));
#573=CARTESIAN_POINT('Origin',(-8.,-8.,0.));
#574=CARTESIAN_POINT('',(-5.75,-8.,0.));
#575=CARTESIAN_POINT('Origin',(-8.,-8.,0.));
#576=CARTESIAN_POINT('Origin',(8.,-8.,0.));
#577=CARTESIAN_POINT('',(10.25,-8.,0.));
#578=CARTESIAN_POINT('Origin',(8.,-8.,0.));
#579=CARTESIAN_POINT('Origin',(14.,-14.,0.));
#580=CARTESIAN_POINT('',(14.,18.,0.));
#581=CARTESIAN_POINT('',(14.,-14.,0.));
#582=CARTESIAN_POINT('',(14.,18.,0.));
#583=CARTESIAN_POINT('Origin',(-14.,18.,0.));
#584=CARTESIAN_POINT('',(-14.,18.,0.));
#585=CARTESIAN_POINT('',(-14.,18.,0.));
#586=CARTESIAN_POINT('',(-14.,18.,0.));
#587=CARTESIAN_POINT('Origin',(14.,18.,0.));
#588=CARTESIAN_POINT('',(14.,18.,0.));
#589=CARTESIAN_POINT('Origin',(5.55111512312578E-16,2.,0.));
#590=UNCERTAINTY_MEASURE_WITH_UNIT(LENGTH_MEASURE(0.01),#594,
'DISTANCE_ACCURACY_VALUE',
'Maximum model space distance between geometric entities at asserted c
onnectivities');
#591=UNCERTAINTY_MEASURE_WITH_UNIT(LENGTH_MEASURE(1.E-6),#594,
'DISTANCE_ACCURACY_VALUE',
'Maximum model space distance between geometric entities at asserted c
onnectivities');
#592=(
GEOMETRIC_REPRESENTATION_CONTEXT(3)
GLOBAL_UNCERTAINTY_ASSIGNED_CONTEXT((#590))
GLOBAL_UNIT_ASSIGNED_CONTEXT((#594,#597,#595))
REPRESENTATION_CONTEXT('','3D')
);
#593=(
GEOMETRIC_REPRESENTATION_CONTEXT(3)
GLOBAL_UNCERTAINTY_ASSIGNED_CONTEXT((#591))
GLOBAL_UNIT_ASSIGNED_CONTEXT((#594,#597,#595))
REPRESENTATION_CONTEXT('','3D')
);
#594=(
LENGTH_UNIT()
NAMED_UNIT(*)
SI_UNIT(.MILLI.,.METRE.)
);
#595=(
NAMED_UNIT(*)
SI_UNIT($,.STERADIAN.)
SOLID_ANGLE_UNIT()
);
#596=DIMENSIONAL_EXPONENTS(0.,0.,0.,0.,0.,0.,0.);
#597=(
CONVERSION_BASED_UNIT('degree',#599)
NAMED_UNIT(#596)
PLANE_ANGLE_UNIT()
);
#598=(
NAMED_UNIT(*)
PLANE_ANGLE_UNIT()
SI_UNIT($,.RADIAN.)
);
#599=PLANE_ANGLE_MEASURE_WITH_UNIT(PLANE_ANGLE_MEASURE(0.01745329252),#598);
#600=SHAPE_DEFINITION_REPRESENTATION(#601,#602);
#601=PRODUCT_DEFINITION_SHAPE('',$,#604);
#602=SHAPE_REPRESENTATION('',(#354),#592);
#603=PRODUCT_DEFINITION_CONTEXT('part definition',#608,'design');
#604=PRODUCT_DEFINITION('190.163.001.10','190.163.001.10_Montagewinkel',
#605,#603);
#605=PRODUCT_DEFINITION_FORMATION('Original',$,#610);
#606=PRODUCT_RELATED_PRODUCT_CATEGORY('190.163.001.10_Montagewinkel',
'190.163.001.10_Montagewinkel',(#610));
#607=APPLICATION_PROTOCOL_DEFINITION('international standard',
'ap242_managed_model_based_3d_engineering',2011,#608);
#608=APPLICATION_CONTEXT('Managed model based 3d engineering');
#609=PRODUCT_CONTEXT('part definition',#608,'mechanical');
#610=PRODUCT('190.163.001.10','190.163.001.10_Montagewinkel',
'Montagewinkel Objektivhalter',(#609));
#611=PRESENTATION_STYLE_ASSIGNMENT((#612));
#612=SURFACE_STYLE_USAGE(.BOTH.,#613);
#613=SURFACE_SIDE_STYLE('',(#614));
#614=SURFACE_STYLE_FILL_AREA(#615);
#615=FILL_AREA_STYLE('',(#616));
#616=FILL_AREA_STYLE_COLOUR('',#617);
#617=COLOUR_RGB('',0.52156862745098,0.0627450980392157,0.0862745098039216);
ENDSEC;
END-ISO-10303-21;
