ISO-10303-21;
HEADER;
/* Generated by software containing ST-Developer
 * from STEP Tools, Inc. (www.steptools.com) 
 */

FILE_DESCRIPTION(
/* description */ (''),
/* implementation_level */ '2;1');

FILE_NAME(
/* name */ 
'V:\\Produktentwicklung\\CAD\\Zubeh\X\F6r\\TechDok\\190.029.000.26_IR_
M26x0,5\\3D-Modell\\Webseite\\IR_M26x0,5.stp',
/* time_stamp */ '2021-05-20T09:44:47+02:00',
/* author */ (''),
/* organization */ (''),
/* preprocessor_version */ 'ST-DEVELOPER v16.5',
/* originating_system */ 'Autodesk Inventor 2017',
/* authorisation */ '');

FILE_SCHEMA (('AUTOMOTIVE_DESIGN { 1 0 10303 214 3 1 1 }'));
ENDSEC;

DATA;
#10=MECHANICAL_DESIGN_GEOMETRIC_PRESENTATION_REPRESENTATION('',(#316,#317,
#315,#313,#314,#302,#305,#306,#303,#304,#301,#310,#308,#307,#311,#309,#312,
#295,#297,#296,#299,#298,#300,#321,#318,#319,#320,#323,#322,#324),#626);
#11=SHAPE_REPRESENTATION_RELATIONSHIP('SRR','None',#635,#12);
#12=ADVANCED_BREP_SHAPE_REPRESENTATION('',(#356),#625);
#13=ORIENTED_CLOSED_SHELL('',*,#355,.F.);
#14=PLANE('',#372);
#15=PLANE('',#376);
#16=PLANE('',#381);
#17=PLANE('',#388);
#18=PLANE('',#390);
#19=PLANE('',#395);
#20=PLANE('',#396);
#21=PLANE('',#412);
#22=PLANE('',#415);
#23=PLANE('',#419);
#24=PLANE('',#420);
#25=CONICAL_SURFACE('',#367,15.75,45.);
#26=CONICAL_SURFACE('',#374,15.75,45.);
#27=CONICAL_SURFACE('',#379,14.75,45.);
#28=CONICAL_SURFACE('',#383,12.75,45.);
#29=CONICAL_SURFACE('',#397,12.4,45.);
#30=CONICAL_SURFACE('',#402,12.4,45.);
#31=CONICAL_SURFACE('',#407,14.75,45.);
#32=CONICAL_SURFACE('',#414,12.8,45.);
#33=FACE_BOUND('',#90,.T.);
#34=FACE_BOUND('',#92,.T.);
#35=FACE_BOUND('',#94,.T.);
#36=FACE_BOUND('',#96,.T.);
#37=FACE_BOUND('',#98,.T.);
#38=FACE_BOUND('',#100,.T.);
#39=FACE_BOUND('',#102,.T.);
#40=FACE_BOUND('',#104,.T.);
#41=FACE_BOUND('',#106,.T.);
#42=FACE_BOUND('',#108,.T.);
#43=FACE_BOUND('',#110,.T.);
#44=FACE_BOUND('',#112,.T.);
#45=FACE_BOUND('',#114,.T.);
#46=FACE_BOUND('',#116,.T.);
#47=FACE_BOUND('',#118,.T.);
#48=FACE_BOUND('',#122,.T.);
#49=FACE_BOUND('',#124,.T.);
#50=FACE_BOUND('',#126,.T.);
#51=FACE_BOUND('',#128,.T.);
#52=FACE_BOUND('',#130,.T.);
#53=FACE_BOUND('',#132,.T.);
#54=FACE_BOUND('',#134,.T.);
#55=FACE_BOUND('',#136,.T.);
#56=FACE_BOUND('',#138,.T.);
#57=FACE_BOUND('',#140,.T.);
#58=FACE_BOUND('',#142,.T.);
#59=FACE_BOUND('',#144,.T.);
#60=FACE_OUTER_BOUND('',#89,.T.);
#61=FACE_OUTER_BOUND('',#91,.T.);
#62=FACE_OUTER_BOUND('',#93,.T.);
#63=FACE_OUTER_BOUND('',#95,.T.);
#64=FACE_OUTER_BOUND('',#97,.T.);
#65=FACE_OUTER_BOUND('',#99,.T.);
#66=FACE_OUTER_BOUND('',#101,.T.);
#67=FACE_OUTER_BOUND('',#103,.T.);
#68=FACE_OUTER_BOUND('',#105,.T.);
#69=FACE_OUTER_BOUND('',#107,.T.);
#70=FACE_OUTER_BOUND('',#109,.T.);
#71=FACE_OUTER_BOUND('',#111,.T.);
#72=FACE_OUTER_BOUND('',#113,.T.);
#73=FACE_OUTER_BOUND('',#115,.T.);
#74=FACE_OUTER_BOUND('',#117,.T.);
#75=FACE_OUTER_BOUND('',#119,.T.);
#76=FACE_OUTER_BOUND('',#120,.T.);
#77=FACE_OUTER_BOUND('',#121,.T.);
#78=FACE_OUTER_BOUND('',#123,.T.);
#79=FACE_OUTER_BOUND('',#125,.T.);
#80=FACE_OUTER_BOUND('',#127,.T.);
#81=FACE_OUTER_BOUND('',#129,.T.);
#82=FACE_OUTER_BOUND('',#131,.T.);
#83=FACE_OUTER_BOUND('',#133,.T.);
#84=FACE_OUTER_BOUND('',#135,.T.);
#85=FACE_OUTER_BOUND('',#137,.T.);
#86=FACE_OUTER_BOUND('',#139,.T.);
#87=FACE_OUTER_BOUND('',#141,.T.);
#88=FACE_OUTER_BOUND('',#143,.T.);
#89=EDGE_LOOP('',(#229));
#90=EDGE_LOOP('',(#230));
#91=EDGE_LOOP('',(#231));
#92=EDGE_LOOP('',(#232));
#93=EDGE_LOOP('',(#233));
#94=EDGE_LOOP('',(#234));
#95=EDGE_LOOP('',(#235));
#96=EDGE_LOOP('',(#236));
#97=EDGE_LOOP('',(#237));
#98=EDGE_LOOP('',(#238));
#99=EDGE_LOOP('',(#239));
#100=EDGE_LOOP('',(#240));
#101=EDGE_LOOP('',(#241));
#102=EDGE_LOOP('',(#242));
#103=EDGE_LOOP('',(#243));
#104=EDGE_LOOP('',(#244));
#105=EDGE_LOOP('',(#245));
#106=EDGE_LOOP('',(#246));
#107=EDGE_LOOP('',(#247));
#108=EDGE_LOOP('',(#248));
#109=EDGE_LOOP('',(#249));
#110=EDGE_LOOP('',(#250));
#111=EDGE_LOOP('',(#251));
#112=EDGE_LOOP('',(#252));
#113=EDGE_LOOP('',(#253));
#114=EDGE_LOOP('',(#254));
#115=EDGE_LOOP('',(#255));
#116=EDGE_LOOP('',(#256));
#117=EDGE_LOOP('',(#257));
#118=EDGE_LOOP('',(#258));
#119=EDGE_LOOP('',(#259));
#120=EDGE_LOOP('',(#260));
#121=EDGE_LOOP('',(#261));
#122=EDGE_LOOP('',(#262));
#123=EDGE_LOOP('',(#263));
#124=EDGE_LOOP('',(#264));
#125=EDGE_LOOP('',(#265));
#126=EDGE_LOOP('',(#266));
#127=EDGE_LOOP('',(#267));
#128=EDGE_LOOP('',(#268));
#129=EDGE_LOOP('',(#269));
#130=EDGE_LOOP('',(#270));
#131=EDGE_LOOP('',(#271));
#132=EDGE_LOOP('',(#272));
#133=EDGE_LOOP('',(#273));
#134=EDGE_LOOP('',(#274));
#135=EDGE_LOOP('',(#275));
#136=EDGE_LOOP('',(#276));
#137=EDGE_LOOP('',(#277));
#138=EDGE_LOOP('',(#278));
#139=EDGE_LOOP('',(#279));
#140=EDGE_LOOP('',(#280));
#141=EDGE_LOOP('',(#281));
#142=EDGE_LOOP('',(#282));
#143=EDGE_LOOP('',(#283));
#144=EDGE_LOOP('',(#284));
#145=CIRCLE('',#365,14.73);
#146=CIRCLE('',#366,14.73);
#147=CIRCLE('',#368,16.);
#148=CIRCLE('',#369,15.5);
#149=CIRCLE('',#371,16.);
#150=CIRCLE('',#373,12.);
#151=CIRCLE('',#375,15.5);
#152=CIRCLE('',#378,12.);
#153=CIRCLE('',#380,14.5);
#154=CIRCLE('',#382,12.6);
#155=CIRCLE('',#384,13.);
#156=CIRCLE('',#385,12.5);
#157=CIRCLE('',#387,13.);
#158=CIRCLE('',#389,12.);
#159=CIRCLE('',#391,12.6);
#160=CIRCLE('',#394,12.);
#161=CIRCLE('',#398,12.3);
#162=CIRCLE('',#399,12.5);
#163=CIRCLE('',#401,12.5);
#164=CIRCLE('',#403,12.3);
#165=CIRCLE('',#405,15.);
#166=CIRCLE('',#406,15.);
#167=CIRCLE('',#408,14.5);
#168=CIRCLE('',#410,12.55);
#169=CIRCLE('',#411,12.55);
#170=CIRCLE('',#413,13.05);
#171=CIRCLE('',#417,15.3);
#172=CIRCLE('',#418,15.3);
#173=VERTEX_POINT('',#539);
#174=VERTEX_POINT('',#541);
#175=VERTEX_POINT('',#544);
#176=VERTEX_POINT('',#546);
#177=VERTEX_POINT('',#549);
#178=VERTEX_POINT('',#552);
#179=VERTEX_POINT('',#555);
#180=VERTEX_POINT('',#559);
#181=VERTEX_POINT('',#562);
#182=VERTEX_POINT('',#565);
#183=VERTEX_POINT('',#568);
#184=VERTEX_POINT('',#570);
#185=VERTEX_POINT('',#573);
#186=VERTEX_POINT('',#576);
#187=VERTEX_POINT('',#579);
#188=VERTEX_POINT('',#583);
#189=VERTEX_POINT('',#588);
#190=VERTEX_POINT('',#590);
#191=VERTEX_POINT('',#593);
#192=VERTEX_POINT('',#596);
#193=VERTEX_POINT('',#599);
#194=VERTEX_POINT('',#601);
#195=VERTEX_POINT('',#604);
#196=VERTEX_POINT('',#607);
#197=VERTEX_POINT('',#609);
#198=VERTEX_POINT('',#612);
#199=VERTEX_POINT('',#617);
#200=VERTEX_POINT('',#619);
#201=EDGE_CURVE('',#173,#173,#145,.T.);
#202=EDGE_CURVE('',#174,#174,#146,.T.);
#203=EDGE_CURVE('',#175,#175,#147,.T.);
#204=EDGE_CURVE('',#176,#176,#148,.T.);
#205=EDGE_CURVE('',#177,#177,#149,.T.);
#206=EDGE_CURVE('',#178,#178,#150,.T.);
#207=EDGE_CURVE('',#179,#179,#151,.T.);
#208=EDGE_CURVE('',#180,#180,#152,.T.);
#209=EDGE_CURVE('',#181,#181,#153,.T.);
#210=EDGE_CURVE('',#182,#182,#154,.T.);
#211=EDGE_CURVE('',#183,#183,#155,.T.);
#212=EDGE_CURVE('',#184,#184,#156,.T.);
#213=EDGE_CURVE('',#185,#185,#157,.T.);
#214=EDGE_CURVE('',#186,#186,#158,.T.);
#215=EDGE_CURVE('',#187,#187,#159,.T.);
#216=EDGE_CURVE('',#188,#188,#160,.T.);
#217=EDGE_CURVE('',#189,#189,#161,.T.);
#218=EDGE_CURVE('',#190,#190,#162,.T.);
#219=EDGE_CURVE('',#191,#191,#163,.T.);
#220=EDGE_CURVE('',#192,#192,#164,.T.);
#221=EDGE_CURVE('',#193,#193,#165,.T.);
#222=EDGE_CURVE('',#194,#194,#166,.T.);
#223=EDGE_CURVE('',#195,#195,#167,.T.);
#224=EDGE_CURVE('',#196,#196,#168,.T.);
#225=EDGE_CURVE('',#197,#197,#169,.T.);
#226=EDGE_CURVE('',#198,#198,#170,.T.);
#227=EDGE_CURVE('',#199,#199,#171,.T.);
#228=EDGE_CURVE('',#200,#200,#172,.T.);
#229=ORIENTED_EDGE('',*,*,#201,.F.);
#230=ORIENTED_EDGE('',*,*,#202,.F.);
#231=ORIENTED_EDGE('',*,*,#203,.T.);
#232=ORIENTED_EDGE('',*,*,#204,.T.);
#233=ORIENTED_EDGE('',*,*,#205,.F.);
#234=ORIENTED_EDGE('',*,*,#203,.F.);
#235=ORIENTED_EDGE('',*,*,#204,.F.);
#236=ORIENTED_EDGE('',*,*,#206,.T.);
#237=ORIENTED_EDGE('',*,*,#207,.T.);
#238=ORIENTED_EDGE('',*,*,#205,.T.);
#239=ORIENTED_EDGE('',*,*,#207,.F.);
#240=ORIENTED_EDGE('',*,*,#201,.T.);
#241=ORIENTED_EDGE('',*,*,#208,.F.);
#242=ORIENTED_EDGE('',*,*,#206,.F.);
#243=ORIENTED_EDGE('',*,*,#202,.T.);
#244=ORIENTED_EDGE('',*,*,#209,.T.);
#245=ORIENTED_EDGE('',*,*,#209,.F.);
#246=ORIENTED_EDGE('',*,*,#210,.F.);
#247=ORIENTED_EDGE('',*,*,#211,.T.);
#248=ORIENTED_EDGE('',*,*,#212,.T.);
#249=ORIENTED_EDGE('',*,*,#213,.T.);
#250=ORIENTED_EDGE('',*,*,#211,.F.);
#251=ORIENTED_EDGE('',*,*,#212,.F.);
#252=ORIENTED_EDGE('',*,*,#214,.T.);
#253=ORIENTED_EDGE('',*,*,#213,.F.);
#254=ORIENTED_EDGE('',*,*,#215,.T.);
#255=ORIENTED_EDGE('',*,*,#210,.T.);
#256=ORIENTED_EDGE('',*,*,#215,.F.);
#257=ORIENTED_EDGE('',*,*,#214,.F.);
#258=ORIENTED_EDGE('',*,*,#216,.F.);
#259=ORIENTED_EDGE('',*,*,#216,.T.);
#260=ORIENTED_EDGE('',*,*,#208,.T.);
#261=ORIENTED_EDGE('',*,*,#217,.T.);
#262=ORIENTED_EDGE('',*,*,#218,.T.);
#263=ORIENTED_EDGE('',*,*,#218,.F.);
#264=ORIENTED_EDGE('',*,*,#219,.F.);
#265=ORIENTED_EDGE('',*,*,#219,.T.);
#266=ORIENTED_EDGE('',*,*,#220,.T.);
#267=ORIENTED_EDGE('',*,*,#221,.T.);
#268=ORIENTED_EDGE('',*,*,#222,.F.);
#269=ORIENTED_EDGE('',*,*,#223,.T.);
#270=ORIENTED_EDGE('',*,*,#222,.T.);
#271=ORIENTED_EDGE('',*,*,#224,.F.);
#272=ORIENTED_EDGE('',*,*,#225,.F.);
#273=ORIENTED_EDGE('',*,*,#223,.F.);
#274=ORIENTED_EDGE('',*,*,#226,.F.);
#275=ORIENTED_EDGE('',*,*,#225,.T.);
#276=ORIENTED_EDGE('',*,*,#226,.T.);
#277=ORIENTED_EDGE('',*,*,#224,.T.);
#278=ORIENTED_EDGE('',*,*,#220,.F.);
#279=ORIENTED_EDGE('',*,*,#227,.T.);
#280=ORIENTED_EDGE('',*,*,#228,.F.);
#281=ORIENTED_EDGE('',*,*,#228,.T.);
#282=ORIENTED_EDGE('',*,*,#221,.F.);
#283=ORIENTED_EDGE('',*,*,#227,.F.);
#284=ORIENTED_EDGE('',*,*,#217,.F.);
#285=CYLINDRICAL_SURFACE('',#364,14.73);
#286=CYLINDRICAL_SURFACE('',#370,16.);
#287=CYLINDRICAL_SURFACE('',#377,12.);
#288=CYLINDRICAL_SURFACE('',#386,13.);
#289=CYLINDRICAL_SURFACE('',#392,12.6);
#290=CYLINDRICAL_SURFACE('',#393,12.);
#291=CYLINDRICAL_SURFACE('',#400,12.5);
#292=CYLINDRICAL_SURFACE('',#404,15.);
#293=CYLINDRICAL_SURFACE('',#409,12.55);
#294=CYLINDRICAL_SURFACE('',#416,15.3);
#295=STYLED_ITEM('',(#645),#325);
#296=STYLED_ITEM('',(#645),#326);
#297=STYLED_ITEM('',(#645),#327);
#298=STYLED_ITEM('',(#645),#328);
#299=STYLED_ITEM('',(#645),#329);
#300=STYLED_ITEM('',(#645),#330);
#301=STYLED_ITEM('',(#645),#331);
#302=STYLED_ITEM('',(#645),#332);
#303=STYLED_ITEM('',(#645),#333);
#304=STYLED_ITEM('',(#645),#334);
#305=STYLED_ITEM('',(#645),#335);
#306=STYLED_ITEM('',(#645),#336);
#307=STYLED_ITEM('',(#645),#337);
#308=STYLED_ITEM('',(#645),#338);
#309=STYLED_ITEM('',(#645),#339);
#310=STYLED_ITEM('',(#646),#340);
#311=STYLED_ITEM('',(#646),#341);
#312=STYLED_ITEM('',(#646),#342);
#313=STYLED_ITEM('',(#646),#343);
#314=STYLED_ITEM('',(#646),#344);
#315=STYLED_ITEM('',(#645),#345);
#316=STYLED_ITEM('',(#645),#346);
#317=STYLED_ITEM('',(#645),#347);
#318=STYLED_ITEM('',(#645),#348);
#319=STYLED_ITEM('',(#645),#349);
#320=STYLED_ITEM('',(#645),#350);
#321=STYLED_ITEM('',(#645),#351);
#322=STYLED_ITEM('',(#645),#352);
#323=STYLED_ITEM('',(#645),#353);
#324=STYLED_ITEM('',(#644),#356);
#325=ADVANCED_FACE('',(#60,#33),#285,.F.);
#326=ADVANCED_FACE('',(#61,#34),#25,.T.);
#327=ADVANCED_FACE('',(#62,#35),#286,.T.);
#328=ADVANCED_FACE('',(#63,#36),#14,.T.);
#329=ADVANCED_FACE('',(#64,#37),#26,.T.);
#330=ADVANCED_FACE('',(#65,#38),#15,.F.);
#331=ADVANCED_FACE('',(#66,#39),#287,.F.);
#332=ADVANCED_FACE('',(#67,#40),#27,.T.);
#333=ADVANCED_FACE('',(#68,#41),#16,.F.);
#334=ADVANCED_FACE('',(#69,#42),#28,.T.);
#335=ADVANCED_FACE('',(#70,#43),#288,.T.);
#336=ADVANCED_FACE('',(#71,#44),#17,.T.);
#337=ADVANCED_FACE('',(#72,#45),#18,.F.);
#338=ADVANCED_FACE('',(#73,#46),#289,.T.);
#339=ADVANCED_FACE('',(#74,#47),#290,.F.);
#340=ADVANCED_FACE('',(#75),#19,.T.);
#341=ADVANCED_FACE('',(#76),#20,.F.);
#342=ADVANCED_FACE('',(#77,#48),#29,.T.);
#343=ADVANCED_FACE('',(#78,#49),#291,.T.);
#344=ADVANCED_FACE('',(#79,#50),#30,.T.);
#345=ADVANCED_FACE('',(#80,#51),#292,.T.);
#346=ADVANCED_FACE('',(#81,#52),#31,.T.);
#347=ADVANCED_FACE('',(#82,#53),#293,.F.);
#348=ADVANCED_FACE('',(#83,#54),#21,.F.);
#349=ADVANCED_FACE('',(#84,#55),#32,.F.);
#350=ADVANCED_FACE('',(#85,#56),#22,.T.);
#351=ADVANCED_FACE('',(#86,#57),#294,.F.);
#352=ADVANCED_FACE('',(#87,#58),#23,.F.);
#353=ADVANCED_FACE('',(#88,#59),#24,.F.);
#354=CLOSED_SHELL('',(#325,#326,#327,#328,#329,#330,#331,#332,#333,#334,
#335,#336,#337,#338,#339,#340,#341));
#355=CLOSED_SHELL('',(#342,#343,#344,#345,#346,#347,#348,#349,#350,#351,
#352,#353));
#356=BREP_WITH_VOIDS('Volumenk\X\F6rper1',#354,(#13));
#357=DATE_TIME_ROLE('creation_date');
#358=APPLIED_DATE_AND_TIME_ASSIGNMENT(#359,#357,(#637));
#359=DATE_AND_TIME(#360,#361);
#360=CALENDAR_DATE(2021,20,5);
#361=LOCAL_TIME(7,44,9.,#362);
#362=COORDINATED_UNIVERSAL_TIME_OFFSET(0,0,.BEHIND.);
#363=AXIS2_PLACEMENT_3D('placement',#537,#421,#422);
#364=AXIS2_PLACEMENT_3D('',#538,#423,#424);
#365=AXIS2_PLACEMENT_3D('',#540,#425,#426);
#366=AXIS2_PLACEMENT_3D('',#542,#427,#428);
#367=AXIS2_PLACEMENT_3D('',#543,#429,#430);
#368=AXIS2_PLACEMENT_3D('',#545,#431,#432);
#369=AXIS2_PLACEMENT_3D('',#547,#433,#434);
#370=AXIS2_PLACEMENT_3D('',#548,#435,#436);
#371=AXIS2_PLACEMENT_3D('',#550,#437,#438);
#372=AXIS2_PLACEMENT_3D('',#551,#439,#440);
#373=AXIS2_PLACEMENT_3D('',#553,#441,#442);
#374=AXIS2_PLACEMENT_3D('',#554,#443,#444);
#375=AXIS2_PLACEMENT_3D('',#556,#445,#446);
#376=AXIS2_PLACEMENT_3D('',#557,#447,#448);
#377=AXIS2_PLACEMENT_3D('',#558,#449,#450);
#378=AXIS2_PLACEMENT_3D('',#560,#451,#452);
#379=AXIS2_PLACEMENT_3D('',#561,#453,#454);
#380=AXIS2_PLACEMENT_3D('',#563,#455,#456);
#381=AXIS2_PLACEMENT_3D('',#564,#457,#458);
#382=AXIS2_PLACEMENT_3D('',#566,#459,#460);
#383=AXIS2_PLACEMENT_3D('',#567,#461,#462);
#384=AXIS2_PLACEMENT_3D('',#569,#463,#464);
#385=AXIS2_PLACEMENT_3D('',#571,#465,#466);
#386=AXIS2_PLACEMENT_3D('',#572,#467,#468);
#387=AXIS2_PLACEMENT_3D('',#574,#469,#470);
#388=AXIS2_PLACEMENT_3D('',#575,#471,#472);
#389=AXIS2_PLACEMENT_3D('',#577,#473,#474);
#390=AXIS2_PLACEMENT_3D('',#578,#475,#476);
#391=AXIS2_PLACEMENT_3D('',#580,#477,#478);
#392=AXIS2_PLACEMENT_3D('',#581,#479,#480);
#393=AXIS2_PLACEMENT_3D('',#582,#481,#482);
#394=AXIS2_PLACEMENT_3D('',#584,#483,#484);
#395=AXIS2_PLACEMENT_3D('',#585,#485,#486);
#396=AXIS2_PLACEMENT_3D('',#586,#487,#488);
#397=AXIS2_PLACEMENT_3D('',#587,#489,#490);
#398=AXIS2_PLACEMENT_3D('',#589,#491,#492);
#399=AXIS2_PLACEMENT_3D('',#591,#493,#494);
#400=AXIS2_PLACEMENT_3D('',#592,#495,#496);
#401=AXIS2_PLACEMENT_3D('',#594,#497,#498);
#402=AXIS2_PLACEMENT_3D('',#595,#499,#500);
#403=AXIS2_PLACEMENT_3D('',#597,#501,#502);
#404=AXIS2_PLACEMENT_3D('',#598,#503,#504);
#405=AXIS2_PLACEMENT_3D('',#600,#505,#506);
#406=AXIS2_PLACEMENT_3D('',#602,#507,#508);
#407=AXIS2_PLACEMENT_3D('',#603,#509,#510);
#408=AXIS2_PLACEMENT_3D('',#605,#511,#512);
#409=AXIS2_PLACEMENT_3D('',#606,#513,#514);
#410=AXIS2_PLACEMENT_3D('',#608,#515,#516);
#411=AXIS2_PLACEMENT_3D('',#610,#517,#518);
#412=AXIS2_PLACEMENT_3D('',#611,#519,#520);
#413=AXIS2_PLACEMENT_3D('',#613,#521,#522);
#414=AXIS2_PLACEMENT_3D('',#614,#523,#524);
#415=AXIS2_PLACEMENT_3D('',#615,#525,#526);
#416=AXIS2_PLACEMENT_3D('',#616,#527,#528);
#417=AXIS2_PLACEMENT_3D('',#618,#529,#530);
#418=AXIS2_PLACEMENT_3D('',#620,#531,#532);
#419=AXIS2_PLACEMENT_3D('',#621,#533,#534);
#420=AXIS2_PLACEMENT_3D('',#622,#535,#536);
#421=DIRECTION('axis',(0.,0.,1.));
#422=DIRECTION('refdir',(1.,0.,0.));
#423=DIRECTION('center_axis',(-1.30542315601542E-17,-1.29422492262822E-31,
1.));
#424=DIRECTION('ref_axis',(-0.395791879761148,-0.918340235378553,-5.16675884803084E-18));
#425=DIRECTION('center_axis',(-1.30542315601542E-17,-1.29422492262822E-31,
1.));
#426=DIRECTION('ref_axis',(-0.395791879761148,-0.918340235378553,-5.16675884803084E-18));
#427=DIRECTION('center_axis',(1.30542315601542E-17,1.29422492262822E-31,
-1.));
#428=DIRECTION('ref_axis',(-0.395791879761148,-0.918340235378553,-5.16675884803084E-18));
#429=DIRECTION('center_axis',(1.30542315601542E-17,1.29422492262822E-31,
-1.));
#430=DIRECTION('ref_axis',(-0.395791879761148,-0.918340235378554,-5.16675884803084E-18));
#431=DIRECTION('center_axis',(-1.30542315601542E-17,-1.29422492262822E-31,
1.));
#432=DIRECTION('ref_axis',(-0.395791879761148,-0.918340235378554,-5.16675884803084E-18));
#433=DIRECTION('center_axis',(1.30542315601542E-17,1.29422492262822E-31,
-1.));
#434=DIRECTION('ref_axis',(-0.395791879761148,-0.918340235378554,-5.16675884803084E-18));
#435=DIRECTION('center_axis',(1.30542315601542E-17,1.29422492262822E-31,
-1.));
#436=DIRECTION('ref_axis',(-0.395791879761148,-0.918340235378554,-5.16675884803084E-18));
#437=DIRECTION('center_axis',(1.30542315601542E-17,1.29422492262822E-31,
-1.));
#438=DIRECTION('ref_axis',(-0.395791879761148,-0.918340235378554,-5.16675884803084E-18));
#439=DIRECTION('center_axis',(-1.30542315601542E-17,-1.29422492262822E-31,
1.));
#440=DIRECTION('ref_axis',(-0.395791879761148,-0.918340235378554,0.));
#441=DIRECTION('center_axis',(1.30542315601542E-17,1.29422492262822E-31,
-1.));
#442=DIRECTION('ref_axis',(-0.395791879761148,-0.918340235378554,-5.16675884803084E-18));
#443=DIRECTION('center_axis',(-1.30542315601542E-17,-1.29422492262822E-31,
1.));
#444=DIRECTION('ref_axis',(-0.395791879761148,-0.918340235378554,-5.16675884803084E-18));
#445=DIRECTION('center_axis',(-1.30542315601542E-17,-1.29422492262822E-31,
1.));
#446=DIRECTION('ref_axis',(-0.395791879761148,-0.918340235378554,-5.16675884803084E-18));
#447=DIRECTION('center_axis',(-1.30542315601542E-17,-1.29422492262822E-31,
1.));
#448=DIRECTION('ref_axis',(-0.395791879761148,-0.918340235378554,0.));
#449=DIRECTION('center_axis',(1.30542315601542E-17,1.29422492262822E-31,
-1.));
#450=DIRECTION('ref_axis',(-0.395791879761148,-0.918340235378554,-5.16675884803084E-18));
#451=DIRECTION('center_axis',(0.,0.,1.));
#452=DIRECTION('ref_axis',(-0.395791879761148,-0.918340235378554,-5.16675884803084E-18));
#453=DIRECTION('center_axis',(0.,0.,1.));
#454=DIRECTION('ref_axis',(1.,0.,0.));
#455=DIRECTION('center_axis',(0.,0.,1.));
#456=DIRECTION('ref_axis',(1.,0.,0.));
#457=DIRECTION('center_axis',(0.,0.,1.));
#458=DIRECTION('ref_axis',(1.,0.,0.));
#459=DIRECTION('center_axis',(0.,0.,-1.));
#460=DIRECTION('ref_axis',(0.,-1.,0.));
#461=DIRECTION('center_axis',(0.,0.,1.));
#462=DIRECTION('ref_axis',(1.,0.,0.));
#463=DIRECTION('center_axis',(0.,0.,-1.));
#464=DIRECTION('ref_axis',(1.,0.,0.));
#465=DIRECTION('center_axis',(0.,0.,1.));
#466=DIRECTION('ref_axis',(1.,0.,0.));
#467=DIRECTION('center_axis',(0.,0.,1.));
#468=DIRECTION('ref_axis',(1.,0.,0.));
#469=DIRECTION('center_axis',(0.,0.,-1.));
#470=DIRECTION('ref_axis',(1.,0.,0.));
#471=DIRECTION('center_axis',(0.,0.,-1.));
#472=DIRECTION('ref_axis',(-1.,0.,0.));
#473=DIRECTION('center_axis',(0.,0.,1.));
#474=DIRECTION('ref_axis',(1.,0.,0.));
#475=DIRECTION('center_axis',(0.,0.,-1.));
#476=DIRECTION('ref_axis',(-1.,0.,0.));
#477=DIRECTION('center_axis',(0.,0.,-1.));
#478=DIRECTION('ref_axis',(0.,-1.,0.));
#479=DIRECTION('center_axis',(0.,0.,-1.));
#480=DIRECTION('ref_axis',(0.,-1.,0.));
#481=DIRECTION('center_axis',(0.,0.,1.));
#482=DIRECTION('ref_axis',(1.,0.,0.));
#483=DIRECTION('center_axis',(0.,0.,-1.));
#484=DIRECTION('ref_axis',(1.,0.,0.));
#485=DIRECTION('center_axis',(0.,0.,-1.));
#486=DIRECTION('ref_axis',(-0.886257577824793,0.463192730672807,0.));
#487=DIRECTION('center_axis',(0.,0.,-1.));
#488=DIRECTION('ref_axis',(-0.886257577824793,0.463192730672807,0.));
#489=DIRECTION('center_axis',(0.,0.,-1.));
#490=DIRECTION('ref_axis',(-0.886257577824793,0.463192730672807,0.));
#491=DIRECTION('center_axis',(0.,0.,-1.));
#492=DIRECTION('ref_axis',(-0.886257577824793,0.463192730672807,0.));
#493=DIRECTION('center_axis',(0.,0.,1.));
#494=DIRECTION('ref_axis',(-0.886257577824793,0.463192730672807,0.));
#495=DIRECTION('center_axis',(0.,0.,1.));
#496=DIRECTION('ref_axis',(-0.886257577824793,0.463192730672807,0.));
#497=DIRECTION('center_axis',(0.,0.,-1.));
#498=DIRECTION('ref_axis',(-0.886257577824793,0.463192730672807,0.));
#499=DIRECTION('center_axis',(0.,0.,1.));
#500=DIRECTION('ref_axis',(-0.886257577824793,0.463192730672807,0.));
#501=DIRECTION('center_axis',(0.,0.,1.));
#502=DIRECTION('ref_axis',(-0.886257577824793,0.463192730672807,0.));
#503=DIRECTION('center_axis',(0.,0.,1.));
#504=DIRECTION('ref_axis',(-1.,0.,0.));
#505=DIRECTION('center_axis',(-1.30542315601542E-17,-1.29422492262822E-31,
1.));
#506=DIRECTION('ref_axis',(-1.,0.,0.));
#507=DIRECTION('center_axis',(0.,0.,1.));
#508=DIRECTION('ref_axis',(-1.,0.,0.));
#509=DIRECTION('center_axis',(0.,0.,-1.));
#510=DIRECTION('ref_axis',(-1.,0.,0.));
#511=DIRECTION('center_axis',(0.,0.,-1.));
#512=DIRECTION('ref_axis',(-1.,0.,0.));
#513=DIRECTION('center_axis',(0.,0.,1.));
#514=DIRECTION('ref_axis',(1.,0.,0.));
#515=DIRECTION('center_axis',(0.,0.,1.));
#516=DIRECTION('ref_axis',(1.,0.,0.));
#517=DIRECTION('center_axis',(0.,0.,-1.));
#518=DIRECTION('ref_axis',(-1.,0.,0.));
#519=DIRECTION('center_axis',(0.,0.,-1.));
#520=DIRECTION('ref_axis',(-1.,0.,0.));
#521=DIRECTION('center_axis',(0.,0.,1.));
#522=DIRECTION('ref_axis',(-1.,0.,0.));
#523=DIRECTION('center_axis',(0.,0.,1.));
#524=DIRECTION('ref_axis',(-1.,0.,0.));
#525=DIRECTION('center_axis',(0.,0.,1.));
#526=DIRECTION('ref_axis',(1.,0.,0.));
#527=DIRECTION('center_axis',(-1.30542315601542E-17,-1.29422492262822E-31,
1.));
#528=DIRECTION('ref_axis',(-0.918340235378554,0.395791879761148,-1.19882260836381E-17));
#529=DIRECTION('center_axis',(-1.30542315601542E-17,-1.29422492262822E-31,
1.));
#530=DIRECTION('ref_axis',(-0.918340235378554,0.395791879761148,-1.19882260836381E-17));
#531=DIRECTION('center_axis',(-1.30542315601542E-17,-1.29422492262822E-31,
1.));
#532=DIRECTION('ref_axis',(-0.918340235378554,0.395791879761148,-1.19882260836381E-17));
#533=DIRECTION('center_axis',(1.30542315601542E-17,1.29422492262822E-31,
-1.));
#534=DIRECTION('ref_axis',(0.395791879761148,0.918340235378554,0.));
#535=DIRECTION('center_axis',(-1.30542315601542E-17,-1.29422492262822E-31,
1.));
#536=DIRECTION('ref_axis',(-0.395791879761148,-0.918340235378554,0.));
#537=CARTESIAN_POINT('',(0.,0.,0.));
#538=CARTESIAN_POINT('Origin',(5.22169262406167E-17,-2.22044604925031E-15,
3.00000000000001));
#539=CARTESIAN_POINT('',(5.83001438888171,13.5271516671261,3.00000000000001));
#540=CARTESIAN_POINT('Origin',(5.22169262406167E-17,-2.22044604925031E-15,
3.00000000000001));
#541=CARTESIAN_POINT('',(5.83001438888171,13.5271516671261,3.23));
#542=CARTESIAN_POINT('Origin',(4.92144529817813E-17,-2.22044604925031E-15,
3.23));
#543=CARTESIAN_POINT('Origin',(3.26355789003854E-18,-2.22044604925031E-15,
6.75000000000001));
#544=CARTESIAN_POINT('',(6.33267007617836,14.6934437660569,6.50000000000001));
#545=CARTESIAN_POINT('Origin',(6.52711578007708E-18,-2.22044604925031E-15,
6.50000000000001));
#546=CARTESIAN_POINT('',(6.13477413629779,14.2342736483676,7.00000000000001));
#547=CARTESIAN_POINT('Origin',(0.,-2.22044604925031E-15,7.00000000000001));
#548=CARTESIAN_POINT('Origin',(0.,-2.22044604925031E-15,7.00000000000001));
#549=CARTESIAN_POINT('',(6.33267007617837,14.6934437660569,3.50000000000001));
#550=CARTESIAN_POINT('Origin',(4.56898104605396E-17,-2.22044604925031E-15,
3.50000000000001));
#551=CARTESIAN_POINT('Origin',(0.,-2.22044604925031E-15,7.00000000000001));
#552=CARTESIAN_POINT('',(4.74950255713378,11.0200828245426,7.00000000000001));
#553=CARTESIAN_POINT('Origin',(0.,-2.22044604925031E-15,7.00000000000001));
#554=CARTESIAN_POINT('Origin',(4.89533683505781E-17,-2.22044604925031E-15,
3.25000000000001));
#555=CARTESIAN_POINT('',(6.13477413629779,14.2342736483676,3.00000000000001));
#556=CARTESIAN_POINT('Origin',(5.22169262406167E-17,-2.22044604925031E-15,
3.00000000000001));
#557=CARTESIAN_POINT('Origin',(5.22169262406167E-17,-2.22044604925031E-15,
3.00000000000001));
#558=CARTESIAN_POINT('Origin',(0.,-2.22044604925031E-15,7.00000000000001));
#559=CARTESIAN_POINT('',(4.74950255713378,11.0200828245426,6.00000000000001));
#560=CARTESIAN_POINT('Origin',(1.30542315601543E-17,-2.22044604925031E-15,
6.));
#561=CARTESIAN_POINT('Origin',(0.,0.,3.25));
#562=CARTESIAN_POINT('',(-14.5,-1.77567921304245E-15,3.));
#563=CARTESIAN_POINT('Origin',(0.,0.,3.));
#564=CARTESIAN_POINT('Origin',(0.,0.,3.));
#565=CARTESIAN_POINT('',(0.,-12.6,3.));
#566=CARTESIAN_POINT('Origin',(0.,0.,3.));
#567=CARTESIAN_POINT('Origin',(0.,0.,0.25));
#568=CARTESIAN_POINT('',(-13.,1.59198825996909E-15,0.5));
#569=CARTESIAN_POINT('Origin',(0.,0.,0.5));
#570=CARTESIAN_POINT('',(-12.5,-1.53075794227797E-15,0.));
#571=CARTESIAN_POINT('Origin',(0.,0.,0.));
#572=CARTESIAN_POINT('Origin',(0.,0.,0.));
#573=CARTESIAN_POINT('',(0.,-13.,1.7));
#574=CARTESIAN_POINT('Origin',(0.,0.,1.7));
#575=CARTESIAN_POINT('Origin',(0.,0.,0.));
#576=CARTESIAN_POINT('',(-12.,-1.46952762458685E-15,0.));
#577=CARTESIAN_POINT('Origin',(0.,0.,0.));
#578=CARTESIAN_POINT('Origin',(0.,-12.8,1.7));
#579=CARTESIAN_POINT('',(0.,-12.6,1.7));
#580=CARTESIAN_POINT('Origin',(0.,0.,1.7));
#581=CARTESIAN_POINT('Origin',(0.,0.,2.35));
#582=CARTESIAN_POINT('Origin',(0.,0.,-38.7814212012645));
#583=CARTESIAN_POINT('',(12.,0.,4.));
#584=CARTESIAN_POINT('Origin',(0.,0.,4.));
#585=CARTESIAN_POINT('Origin',(0.,0.,4.));
#586=CARTESIAN_POINT('Origin',(0.,0.,6.));
#587=CARTESIAN_POINT('Origin',(0.,0.,5.9));
#588=CARTESIAN_POINT('',(10.900968207245,-5.69727058727553,6.));
#589=CARTESIAN_POINT('Origin',(0.,0.,6.));
#590=CARTESIAN_POINT('',(11.0782197228099,-5.78990913341009,5.8));
#591=CARTESIAN_POINT('Origin',(0.,0.,5.8));
#592=CARTESIAN_POINT('Origin',(0.,0.,4.));
#593=CARTESIAN_POINT('',(11.0782197228099,-5.78990913341009,4.2));
#594=CARTESIAN_POINT('Origin',(0.,0.,4.2));
#595=CARTESIAN_POINT('Origin',(0.,0.,4.1));
#596=CARTESIAN_POINT('',(10.900968207245,-5.69727058727553,4.));
#597=CARTESIAN_POINT('Origin',(0.,0.,4.));
#598=CARTESIAN_POINT('Origin',(0.,0.,0.));
#599=CARTESIAN_POINT('',(15.,1.83697019872103E-15,4.10000000000001));
#600=CARTESIAN_POINT('Origin',(0.,0.,4.10000000000001));
#601=CARTESIAN_POINT('',(15.,1.83690953073357E-15,5.));
#602=CARTESIAN_POINT('Origin',(0.,0.,5.));
#603=CARTESIAN_POINT('Origin',(0.,0.,5.25));
#604=CARTESIAN_POINT('',(14.5,-1.77567921304245E-15,5.5));
#605=CARTESIAN_POINT('Origin',(0.,0.,5.5));
#606=CARTESIAN_POINT('Origin',(0.,0.,4.75));
#607=CARTESIAN_POINT('',(12.55,0.,4.));
#608=CARTESIAN_POINT('Origin',(0.,0.,4.));
#609=CARTESIAN_POINT('',(12.55,-1.53688097404708E-15,5.));
#610=CARTESIAN_POINT('Origin',(0.,0.,5.));
#611=CARTESIAN_POINT('Origin',(0.,0.,5.5));
#612=CARTESIAN_POINT('',(13.05,1.5981112917382E-15,5.5));
#613=CARTESIAN_POINT('Origin',(0.,0.,5.5));
#614=CARTESIAN_POINT('Origin',(0.,0.,5.25));
#615=CARTESIAN_POINT('Origin',(0.,0.,4.));
#616=CARTESIAN_POINT('Origin',(2.54557515423006E-17,-2.22044604925031E-15,
5.05000000000001));
#617=CARTESIAN_POINT('',(-14.0506056012919,6.05561576034556,6.00000000000001));
#618=CARTESIAN_POINT('Origin',(1.30542315601542E-17,-2.22044604925031E-15,
6.00000000000001));
#619=CARTESIAN_POINT('',(-14.0506056012919,6.05561576034556,4.10000000000001));
#620=CARTESIAN_POINT('Origin',(3.78572715244471E-17,-2.22044604925031E-15,
4.10000000000001));
#621=CARTESIAN_POINT('Origin',(-11.7547550128455,5.06613606094269,4.10000000000001));
#622=CARTESIAN_POINT('Origin',(-11.7547550128455,5.06613606094269,6.00000000000001));
#623=UNCERTAINTY_MEASURE_WITH_UNIT(LENGTH_MEASURE(0.01),#627,
'DISTANCE_ACCURACY_VALUE',
'Maximum model space distance between geometric entities at asserted c
onnectivities');
#624=UNCERTAINTY_MEASURE_WITH_UNIT(LENGTH_MEASURE(1.E-6),#627,
'DISTANCE_ACCURACY_VALUE',
'Maximum model space distance between geometric entities at asserted c
onnectivities');
#625=(
GEOMETRIC_REPRESENTATION_CONTEXT(3)
GLOBAL_UNCERTAINTY_ASSIGNED_CONTEXT((#623))
GLOBAL_UNIT_ASSIGNED_CONTEXT((#627,#630,#628))
REPRESENTATION_CONTEXT('','3D')
);
#626=(
GEOMETRIC_REPRESENTATION_CONTEXT(3)
GLOBAL_UNCERTAINTY_ASSIGNED_CONTEXT((#624))
GLOBAL_UNIT_ASSIGNED_CONTEXT((#627,#630,#628))
REPRESENTATION_CONTEXT('','3D')
);
#627=(
LENGTH_UNIT()
NAMED_UNIT(*)
SI_UNIT(.MILLI.,.METRE.)
);
#628=(
NAMED_UNIT(*)
SI_UNIT($,.STERADIAN.)
SOLID_ANGLE_UNIT()
);
#629=DIMENSIONAL_EXPONENTS(0.,0.,0.,0.,0.,0.,0.);
#630=(
CONVERSION_BASED_UNIT('degree',#632)
NAMED_UNIT(#629)
PLANE_ANGLE_UNIT()
);
#631=(
NAMED_UNIT(*)
PLANE_ANGLE_UNIT()
SI_UNIT($,.RADIAN.)
);
#632=PLANE_ANGLE_MEASURE_WITH_UNIT(PLANE_ANGLE_MEASURE(0.01745329252),#631);
#633=SHAPE_DEFINITION_REPRESENTATION(#634,#635);
#634=PRODUCT_DEFINITION_SHAPE('',$,#637);
#635=SHAPE_REPRESENTATION('',(#363),#625);
#636=PRODUCT_DEFINITION_CONTEXT('part definition',#641,'design');
#637=PRODUCT_DEFINITION('IR_M26x0,5','IR_M26x0,5',#638,#636);
#638=PRODUCT_DEFINITION_FORMATION('',$,#643);
#639=PRODUCT_RELATED_PRODUCT_CATEGORY('IR_M26x0,5','IR_M26x0,5',(#643));
#640=APPLICATION_PROTOCOL_DEFINITION('international standard',
'automotive_design',2009,#641);
#641=APPLICATION_CONTEXT(
'Core Data for Automotive Mechanical Design Process');
#642=PRODUCT_CONTEXT('part definition',#641,'mechanical');
#643=PRODUCT('IR_M26x0,5','IR_M26x0,5','',(#642));
#644=PRESENTATION_STYLE_ASSIGNMENT((#647));
#645=PRESENTATION_STYLE_ASSIGNMENT((#648));
#646=PRESENTATION_STYLE_ASSIGNMENT((#649));
#647=SURFACE_STYLE_USAGE(.BOTH.,#650);
#648=SURFACE_STYLE_USAGE(.BOTH.,#651);
#649=SURFACE_STYLE_USAGE(.BOTH.,#652);
#650=SURFACE_SIDE_STYLE('',(#653));
#651=SURFACE_SIDE_STYLE('',(#654));
#652=SURFACE_SIDE_STYLE('',(#655));
#653=SURFACE_STYLE_FILL_AREA(#656);
#654=SURFACE_STYLE_FILL_AREA(#657);
#655=SURFACE_STYLE_FILL_AREA(#658);
#656=FILL_AREA_STYLE('',(#659));
#657=FILL_AREA_STYLE('',(#660));
#658=FILL_AREA_STYLE('',(#661));
#659=FILL_AREA_STYLE_COLOUR('',#662);
#660=FILL_AREA_STYLE_COLOUR('',#663);
#661=FILL_AREA_STYLE_COLOUR('',#664);
#662=COLOUR_RGB('',0.956862745098039,0.945098039215686,0.972549019607843);
#663=COLOUR_RGB('',0.149019607843137,0.149019607843137,0.149019607843137);
#664=COLOUR_RGB('',1.,0.,0.);
ENDSEC;
END-ISO-10303-21;
