ISO-10303-21;
HEADER;
/* Generated by software containing ST-Developer
 * from STEP Tools, Inc. (www.steptools.com) 
 */

FILE_DESCRIPTION(
/* description */ (''),
/* implementation_level */ '2;1');

FILE_NAME(
/* name */ 
'V:\\Produktentwicklung\\CAD\\Zubeh\X\F6r\\190.132.000.26_Farbfilter_G
r\X\FCn_M39x0,5\\TechDok\\3D-Modell\\Webseite\\Farbfilter_Gr\X\FCn_M39
x0,5.stp',
/* time_stamp */ '2020-09-07T13:39:37+02:00',
/* author */ (''),
/* organization */ ('Vision & Control'),
/* preprocessor_version */ 'ST-DEVELOPER v16.5',
/* originating_system */ 'Autodesk Inventor 2017',
/* authorisation */ '');

FILE_SCHEMA (('AUTOMOTIVE_DESIGN { 1 0 10303 214 3 1 1 }'));
ENDSEC;

DATA;
#10=MECHANICAL_DESIGN_GEOMETRIC_PRESENTATION_REPRESENTATION('',(#22,#37,
#30,#34,#29,#31,#32,#35,#36,#33,#50,#38,#41,#43,#46,#42,#47,#48,#51,#40,
#39,#45,#44,#49,#24,#25,#23,#26,#27,#28),#622);
#11=SHAPE_REPRESENTATION_RELATIONSHIP('SRR','None',#631,#12);
#12=ADVANCED_BREP_SHAPE_REPRESENTATION('',(#13,#14,#15),#621);
#13=MANIFOLD_SOLID_BREP('Volumenk\X\F6rper1',#356);
#14=MANIFOLD_SOLID_BREP('Volumenk\X\F6rper2',#357);
#15=MANIFOLD_SOLID_BREP('Volumenk\X\F6rper3',#358);
#16=CONICAL_SURFACE('',#372,19.35,45.);
#17=CONICAL_SURFACE('',#396,17.85,45.);
#18=CONICAL_SURFACE('',#402,17.85,45.);
#19=CONICAL_SURFACE('',#405,18.45,45.);
#20=CONICAL_SURFACE('',#412,18.45,45.);
#21=TOROIDAL_SURFACE('',#365,19.7,0.5);
#22=STYLED_ITEM('',(#641),#329);
#23=STYLED_ITEM('',(#641),#330);
#24=STYLED_ITEM('',(#641),#331);
#25=STYLED_ITEM('',(#641),#332);
#26=STYLED_ITEM('',(#641),#333);
#27=STYLED_ITEM('',(#641),#334);
#28=STYLED_ITEM('',(#641),#335);
#29=STYLED_ITEM('',(#641),#336);
#30=STYLED_ITEM('',(#641),#337);
#31=STYLED_ITEM('',(#641),#338);
#32=STYLED_ITEM('',(#641),#339);
#33=STYLED_ITEM('',(#641),#340);
#34=STYLED_ITEM('',(#641),#341);
#35=STYLED_ITEM('',(#641),#342);
#36=STYLED_ITEM('',(#641),#343);
#37=STYLED_ITEM('',(#641),#344);
#38=STYLED_ITEM('',(#640),#13);
#39=STYLED_ITEM('',(#642),#345);
#40=STYLED_ITEM('',(#642),#346);
#41=STYLED_ITEM('',(#642),#347);
#42=STYLED_ITEM('',(#642),#348);
#43=STYLED_ITEM('',(#642),#349);
#44=STYLED_ITEM('',(#640),#14);
#45=STYLED_ITEM('',(#641),#350);
#46=STYLED_ITEM('',(#641),#351);
#47=STYLED_ITEM('',(#641),#352);
#48=STYLED_ITEM('',(#641),#353);
#49=STYLED_ITEM('',(#641),#354);
#50=STYLED_ITEM('',(#641),#355);
#51=STYLED_ITEM('',(#640),#15);
#52=PLANE('',#363);
#53=PLANE('',#370);
#54=PLANE('',#377);
#55=PLANE('',#379);
#56=PLANE('',#384);
#57=PLANE('',#392);
#58=PLANE('',#393);
#59=PLANE('',#395);
#60=PLANE('',#401);
#61=PLANE('',#404);
#62=PLANE('',#410);
#63=PLANE('',#414);
#64=FACE_BOUND('',#121,.T.);
#65=FACE_BOUND('',#123,.T.);
#66=FACE_BOUND('',#125,.T.);
#67=FACE_BOUND('',#127,.T.);
#68=FACE_BOUND('',#129,.T.);
#69=FACE_BOUND('',#131,.T.);
#70=FACE_BOUND('',#133,.T.);
#71=FACE_BOUND('',#135,.T.);
#72=FACE_BOUND('',#137,.T.);
#73=FACE_BOUND('',#139,.T.);
#74=FACE_BOUND('',#141,.T.);
#75=FACE_BOUND('',#143,.T.);
#76=FACE_BOUND('',#145,.T.);
#77=FACE_BOUND('',#147,.T.);
#78=FACE_BOUND('',#149,.T.);
#79=FACE_BOUND('',#151,.T.);
#80=FACE_BOUND('',#153,.T.);
#81=FACE_BOUND('',#155,.T.);
#82=FACE_BOUND('',#157,.T.);
#83=FACE_BOUND('',#159,.T.);
#84=FACE_BOUND('',#162,.T.);
#85=FACE_BOUND('',#165,.T.);
#86=FACE_BOUND('',#167,.T.);
#87=FACE_BOUND('',#169,.T.);
#88=FACE_BOUND('',#171,.T.);
#89=FACE_BOUND('',#173,.T.);
#90=FACE_BOUND('',#175,.T.);
#91=FACE_OUTER_BOUND('',#120,.T.);
#92=FACE_OUTER_BOUND('',#122,.T.);
#93=FACE_OUTER_BOUND('',#124,.T.);
#94=FACE_OUTER_BOUND('',#126,.T.);
#95=FACE_OUTER_BOUND('',#128,.T.);
#96=FACE_OUTER_BOUND('',#130,.T.);
#97=FACE_OUTER_BOUND('',#132,.T.);
#98=FACE_OUTER_BOUND('',#134,.T.);
#99=FACE_OUTER_BOUND('',#136,.T.);
#100=FACE_OUTER_BOUND('',#138,.T.);
#101=FACE_OUTER_BOUND('',#140,.T.);
#102=FACE_OUTER_BOUND('',#142,.T.);
#103=FACE_OUTER_BOUND('',#144,.T.);
#104=FACE_OUTER_BOUND('',#146,.T.);
#105=FACE_OUTER_BOUND('',#148,.T.);
#106=FACE_OUTER_BOUND('',#150,.T.);
#107=FACE_OUTER_BOUND('',#152,.T.);
#108=FACE_OUTER_BOUND('',#154,.T.);
#109=FACE_OUTER_BOUND('',#156,.T.);
#110=FACE_OUTER_BOUND('',#158,.T.);
#111=FACE_OUTER_BOUND('',#160,.T.);
#112=FACE_OUTER_BOUND('',#161,.T.);
#113=FACE_OUTER_BOUND('',#163,.T.);
#114=FACE_OUTER_BOUND('',#164,.T.);
#115=FACE_OUTER_BOUND('',#166,.T.);
#116=FACE_OUTER_BOUND('',#168,.T.);
#117=FACE_OUTER_BOUND('',#170,.T.);
#118=FACE_OUTER_BOUND('',#172,.T.);
#119=FACE_OUTER_BOUND('',#174,.T.);
#120=EDGE_LOOP('',(#260));
#121=EDGE_LOOP('',(#261));
#122=EDGE_LOOP('',(#262));
#123=EDGE_LOOP('',(#263));
#124=EDGE_LOOP('',(#264));
#125=EDGE_LOOP('',(#265));
#126=EDGE_LOOP('',(#266));
#127=EDGE_LOOP('',(#267));
#128=EDGE_LOOP('',(#268));
#129=EDGE_LOOP('',(#269));
#130=EDGE_LOOP('',(#270));
#131=EDGE_LOOP('',(#271));
#132=EDGE_LOOP('',(#272));
#133=EDGE_LOOP('',(#273));
#134=EDGE_LOOP('',(#274));
#135=EDGE_LOOP('',(#275));
#136=EDGE_LOOP('',(#276));
#137=EDGE_LOOP('',(#277));
#138=EDGE_LOOP('',(#278));
#139=EDGE_LOOP('',(#279));
#140=EDGE_LOOP('',(#280));
#141=EDGE_LOOP('',(#281));
#142=EDGE_LOOP('',(#282));
#143=EDGE_LOOP('',(#283));
#144=EDGE_LOOP('',(#284));
#145=EDGE_LOOP('',(#285));
#146=EDGE_LOOP('',(#286));
#147=EDGE_LOOP('',(#287));
#148=EDGE_LOOP('',(#288));
#149=EDGE_LOOP('',(#289));
#150=EDGE_LOOP('',(#290));
#151=EDGE_LOOP('',(#291));
#152=EDGE_LOOP('',(#292));
#153=EDGE_LOOP('',(#293));
#154=EDGE_LOOP('',(#294));
#155=EDGE_LOOP('',(#295));
#156=EDGE_LOOP('',(#296));
#157=EDGE_LOOP('',(#297));
#158=EDGE_LOOP('',(#298));
#159=EDGE_LOOP('',(#299));
#160=EDGE_LOOP('',(#300));
#161=EDGE_LOOP('',(#301));
#162=EDGE_LOOP('',(#302));
#163=EDGE_LOOP('',(#303));
#164=EDGE_LOOP('',(#304));
#165=EDGE_LOOP('',(#305));
#166=EDGE_LOOP('',(#306));
#167=EDGE_LOOP('',(#307));
#168=EDGE_LOOP('',(#308));
#169=EDGE_LOOP('',(#309));
#170=EDGE_LOOP('',(#310));
#171=EDGE_LOOP('',(#311));
#172=EDGE_LOOP('',(#312));
#173=EDGE_LOOP('',(#313));
#174=EDGE_LOOP('',(#314));
#175=EDGE_LOOP('',(#315));
#176=CIRCLE('',#361,17.4441394108187);
#177=CIRCLE('',#362,17.4441394108187);
#178=CIRCLE('',#364,18.2295);
#179=CIRCLE('',#366,20.2);
#180=CIRCLE('',#367,19.7);
#181=CIRCLE('',#369,20.2);
#182=CIRCLE('',#371,19.2295);
#183=CIRCLE('',#373,19.5);
#184=CIRCLE('',#374,19.2);
#185=CIRCLE('',#376,19.5);
#186=CIRCLE('',#378,18.2295);
#187=CIRCLE('',#380,19.5295);
#188=CIRCLE('',#381,19.2295);
#189=CIRCLE('',#383,19.5295);
#190=CIRCLE('',#385,19.2);
#191=CIRCLE('',#387,19.2);
#192=CIRCLE('',#389,17.25);
#193=CIRCLE('',#390,17.25);
#194=CIRCLE('',#397,17.9);
#195=CIRCLE('',#398,17.8);
#196=CIRCLE('',#400,17.9);
#197=CIRCLE('',#403,17.8);
#198=CIRCLE('',#406,18.5);
#199=CIRCLE('',#407,18.4);
#200=CIRCLE('',#409,18.5);
#201=CIRCLE('',#411,17.25);
#202=CIRCLE('',#413,18.4);
#203=CIRCLE('',#415,17.25);
#204=VERTEX_POINT('',#535);
#205=VERTEX_POINT('',#537);
#206=VERTEX_POINT('',#540);
#207=VERTEX_POINT('',#543);
#208=VERTEX_POINT('',#545);
#209=VERTEX_POINT('',#548);
#210=VERTEX_POINT('',#551);
#211=VERTEX_POINT('',#554);
#212=VERTEX_POINT('',#556);
#213=VERTEX_POINT('',#559);
#214=VERTEX_POINT('',#562);
#215=VERTEX_POINT('',#565);
#216=VERTEX_POINT('',#567);
#217=VERTEX_POINT('',#570);
#218=VERTEX_POINT('',#573);
#219=VERTEX_POINT('',#576);
#220=VERTEX_POINT('',#579);
#221=VERTEX_POINT('',#581);
#222=VERTEX_POINT('',#589);
#223=VERTEX_POINT('',#591);
#224=VERTEX_POINT('',#594);
#225=VERTEX_POINT('',#598);
#226=VERTEX_POINT('',#602);
#227=VERTEX_POINT('',#604);
#228=VERTEX_POINT('',#607);
#229=VERTEX_POINT('',#610);
#230=VERTEX_POINT('',#613);
#231=VERTEX_POINT('',#616);
#232=EDGE_CURVE('',#204,#204,#176,.T.);
#233=EDGE_CURVE('',#205,#205,#177,.T.);
#234=EDGE_CURVE('',#206,#206,#178,.T.);
#235=EDGE_CURVE('',#207,#207,#179,.T.);
#236=EDGE_CURVE('',#208,#208,#180,.T.);
#237=EDGE_CURVE('',#209,#209,#181,.T.);
#238=EDGE_CURVE('',#210,#210,#182,.T.);
#239=EDGE_CURVE('',#211,#211,#183,.T.);
#240=EDGE_CURVE('',#212,#212,#184,.T.);
#241=EDGE_CURVE('',#213,#213,#185,.T.);
#242=EDGE_CURVE('',#214,#214,#186,.T.);
#243=EDGE_CURVE('',#215,#215,#187,.T.);
#244=EDGE_CURVE('',#216,#216,#188,.T.);
#245=EDGE_CURVE('',#217,#217,#189,.T.);
#246=EDGE_CURVE('',#218,#218,#190,.T.);
#247=EDGE_CURVE('',#219,#219,#191,.T.);
#248=EDGE_CURVE('',#220,#220,#192,.T.);
#249=EDGE_CURVE('',#221,#221,#193,.T.);
#250=EDGE_CURVE('',#222,#222,#194,.T.);
#251=EDGE_CURVE('',#223,#223,#195,.T.);
#252=EDGE_CURVE('',#224,#224,#196,.T.);
#253=EDGE_CURVE('',#225,#225,#197,.T.);
#254=EDGE_CURVE('',#226,#226,#198,.T.);
#255=EDGE_CURVE('',#227,#227,#199,.T.);
#256=EDGE_CURVE('',#228,#228,#200,.T.);
#257=EDGE_CURVE('',#229,#229,#201,.T.);
#258=EDGE_CURVE('',#230,#230,#202,.T.);
#259=EDGE_CURVE('',#231,#231,#203,.T.);
#260=ORIENTED_EDGE('',*,*,#232,.F.);
#261=ORIENTED_EDGE('',*,*,#233,.F.);
#262=ORIENTED_EDGE('',*,*,#234,.F.);
#263=ORIENTED_EDGE('',*,*,#232,.T.);
#264=ORIENTED_EDGE('',*,*,#235,.T.);
#265=ORIENTED_EDGE('',*,*,#236,.T.);
#266=ORIENTED_EDGE('',*,*,#237,.T.);
#267=ORIENTED_EDGE('',*,*,#235,.F.);
#268=ORIENTED_EDGE('',*,*,#236,.F.);
#269=ORIENTED_EDGE('',*,*,#238,.T.);
#270=ORIENTED_EDGE('',*,*,#239,.T.);
#271=ORIENTED_EDGE('',*,*,#240,.T.);
#272=ORIENTED_EDGE('',*,*,#241,.T.);
#273=ORIENTED_EDGE('',*,*,#239,.F.);
#274=ORIENTED_EDGE('',*,*,#240,.F.);
#275=ORIENTED_EDGE('',*,*,#242,.T.);
#276=ORIENTED_EDGE('',*,*,#243,.T.);
#277=ORIENTED_EDGE('',*,*,#244,.F.);
#278=ORIENTED_EDGE('',*,*,#245,.T.);
#279=ORIENTED_EDGE('',*,*,#243,.F.);
#280=ORIENTED_EDGE('',*,*,#241,.F.);
#281=ORIENTED_EDGE('',*,*,#246,.T.);
#282=ORIENTED_EDGE('',*,*,#247,.T.);
#283=ORIENTED_EDGE('',*,*,#246,.F.);
#284=ORIENTED_EDGE('',*,*,#248,.F.);
#285=ORIENTED_EDGE('',*,*,#249,.F.);
#286=ORIENTED_EDGE('',*,*,#244,.T.);
#287=ORIENTED_EDGE('',*,*,#238,.F.);
#288=ORIENTED_EDGE('',*,*,#245,.F.);
#289=ORIENTED_EDGE('',*,*,#249,.T.);
#290=ORIENTED_EDGE('',*,*,#233,.T.);
#291=ORIENTED_EDGE('',*,*,#248,.T.);
#292=ORIENTED_EDGE('',*,*,#234,.T.);
#293=ORIENTED_EDGE('',*,*,#242,.F.);
#294=ORIENTED_EDGE('',*,*,#237,.F.);
#295=ORIENTED_EDGE('',*,*,#247,.F.);
#296=ORIENTED_EDGE('',*,*,#250,.T.);
#297=ORIENTED_EDGE('',*,*,#251,.T.);
#298=ORIENTED_EDGE('',*,*,#252,.F.);
#299=ORIENTED_EDGE('',*,*,#250,.F.);
#300=ORIENTED_EDGE('',*,*,#251,.F.);
#301=ORIENTED_EDGE('',*,*,#253,.T.);
#302=ORIENTED_EDGE('',*,*,#252,.T.);
#303=ORIENTED_EDGE('',*,*,#253,.F.);
#304=ORIENTED_EDGE('',*,*,#254,.T.);
#305=ORIENTED_EDGE('',*,*,#255,.T.);
#306=ORIENTED_EDGE('',*,*,#256,.F.);
#307=ORIENTED_EDGE('',*,*,#254,.F.);
#308=ORIENTED_EDGE('',*,*,#255,.F.);
#309=ORIENTED_EDGE('',*,*,#257,.F.);
#310=ORIENTED_EDGE('',*,*,#258,.T.);
#311=ORIENTED_EDGE('',*,*,#256,.T.);
#312=ORIENTED_EDGE('',*,*,#258,.F.);
#313=ORIENTED_EDGE('',*,*,#259,.T.);
#314=ORIENTED_EDGE('',*,*,#259,.F.);
#315=ORIENTED_EDGE('',*,*,#257,.T.);
#316=CYLINDRICAL_SURFACE('',#360,17.4441394108187);
#317=CYLINDRICAL_SURFACE('',#368,20.2);
#318=CYLINDRICAL_SURFACE('',#375,19.5);
#319=CYLINDRICAL_SURFACE('',#382,19.5295);
#320=CYLINDRICAL_SURFACE('',#386,19.2);
#321=CYLINDRICAL_SURFACE('',#388,17.25);
#322=CYLINDRICAL_SURFACE('',#391,19.2295);
#323=CYLINDRICAL_SURFACE('',#394,18.2295);
#324=CYLINDRICAL_SURFACE('',#399,17.9);
#325=CYLINDRICAL_SURFACE('',#408,18.5);
#326=CYLINDRICAL_SURFACE('',#416,17.25);
#327=ADVANCED_FACE('',(#91,#64),#316,.F.);
#328=ADVANCED_FACE('',(#92,#65),#52,.T.);
#329=ADVANCED_FACE('',(#93,#66),#21,.T.);
#330=ADVANCED_FACE('',(#94,#67),#317,.T.);
#331=ADVANCED_FACE('',(#95,#68),#53,.T.);
#332=ADVANCED_FACE('',(#96,#69),#16,.T.);
#333=ADVANCED_FACE('',(#97,#70),#318,.T.);
#334=ADVANCED_FACE('',(#98,#71),#54,.T.);
#335=ADVANCED_FACE('',(#99,#72),#55,.F.);
#336=ADVANCED_FACE('',(#100,#73),#319,.F.);
#337=ADVANCED_FACE('',(#101,#74),#56,.F.);
#338=ADVANCED_FACE('',(#102,#75),#320,.T.);
#339=ADVANCED_FACE('',(#103,#76),#321,.F.);
#340=ADVANCED_FACE('',(#104,#77),#322,.F.);
#341=ADVANCED_FACE('',(#105,#78),#57,.T.);
#342=ADVANCED_FACE('',(#106,#79),#58,.F.);
#343=ADVANCED_FACE('',(#107,#80),#323,.F.);
#344=ADVANCED_FACE('',(#108,#81),#59,.F.);
#345=ADVANCED_FACE('',(#109,#82),#17,.T.);
#346=ADVANCED_FACE('',(#110,#83),#324,.T.);
#347=ADVANCED_FACE('',(#111),#60,.T.);
#348=ADVANCED_FACE('',(#112,#84),#18,.T.);
#349=ADVANCED_FACE('',(#113),#61,.F.);
#350=ADVANCED_FACE('',(#114,#85),#19,.T.);
#351=ADVANCED_FACE('',(#115,#86),#325,.T.);
#352=ADVANCED_FACE('',(#116,#87),#62,.T.);
#353=ADVANCED_FACE('',(#117,#88),#20,.T.);
#354=ADVANCED_FACE('',(#118,#89),#63,.T.);
#355=ADVANCED_FACE('',(#119,#90),#326,.F.);
#356=CLOSED_SHELL('',(#327,#328,#329,#330,#331,#332,#333,#334,#335,#336,
#337,#338,#339,#340,#341,#342,#343,#344));
#357=CLOSED_SHELL('',(#345,#346,#347,#348,#349));
#358=CLOSED_SHELL('',(#350,#351,#352,#353,#354,#355));
#359=AXIS2_PLACEMENT_3D('placement',#533,#417,#418);
#360=AXIS2_PLACEMENT_3D('',#534,#419,#420);
#361=AXIS2_PLACEMENT_3D('',#536,#421,#422);
#362=AXIS2_PLACEMENT_3D('',#538,#423,#424);
#363=AXIS2_PLACEMENT_3D('',#539,#425,#426);
#364=AXIS2_PLACEMENT_3D('',#541,#427,#428);
#365=AXIS2_PLACEMENT_3D('',#542,#429,#430);
#366=AXIS2_PLACEMENT_3D('',#544,#431,#432);
#367=AXIS2_PLACEMENT_3D('',#546,#433,#434);
#368=AXIS2_PLACEMENT_3D('',#547,#435,#436);
#369=AXIS2_PLACEMENT_3D('',#549,#437,#438);
#370=AXIS2_PLACEMENT_3D('',#550,#439,#440);
#371=AXIS2_PLACEMENT_3D('',#552,#441,#442);
#372=AXIS2_PLACEMENT_3D('',#553,#443,#444);
#373=AXIS2_PLACEMENT_3D('',#555,#445,#446);
#374=AXIS2_PLACEMENT_3D('',#557,#447,#448);
#375=AXIS2_PLACEMENT_3D('',#558,#449,#450);
#376=AXIS2_PLACEMENT_3D('',#560,#451,#452);
#377=AXIS2_PLACEMENT_3D('',#561,#453,#454);
#378=AXIS2_PLACEMENT_3D('',#563,#455,#456);
#379=AXIS2_PLACEMENT_3D('',#564,#457,#458);
#380=AXIS2_PLACEMENT_3D('',#566,#459,#460);
#381=AXIS2_PLACEMENT_3D('',#568,#461,#462);
#382=AXIS2_PLACEMENT_3D('',#569,#463,#464);
#383=AXIS2_PLACEMENT_3D('',#571,#465,#466);
#384=AXIS2_PLACEMENT_3D('',#572,#467,#468);
#385=AXIS2_PLACEMENT_3D('',#574,#469,#470);
#386=AXIS2_PLACEMENT_3D('',#575,#471,#472);
#387=AXIS2_PLACEMENT_3D('',#577,#473,#474);
#388=AXIS2_PLACEMENT_3D('',#578,#475,#476);
#389=AXIS2_PLACEMENT_3D('',#580,#477,#478);
#390=AXIS2_PLACEMENT_3D('',#582,#479,#480);
#391=AXIS2_PLACEMENT_3D('',#583,#481,#482);
#392=AXIS2_PLACEMENT_3D('',#584,#483,#484);
#393=AXIS2_PLACEMENT_3D('',#585,#485,#486);
#394=AXIS2_PLACEMENT_3D('',#586,#487,#488);
#395=AXIS2_PLACEMENT_3D('',#587,#489,#490);
#396=AXIS2_PLACEMENT_3D('',#588,#491,#492);
#397=AXIS2_PLACEMENT_3D('',#590,#493,#494);
#398=AXIS2_PLACEMENT_3D('',#592,#495,#496);
#399=AXIS2_PLACEMENT_3D('',#593,#497,#498);
#400=AXIS2_PLACEMENT_3D('',#595,#499,#500);
#401=AXIS2_PLACEMENT_3D('',#596,#501,#502);
#402=AXIS2_PLACEMENT_3D('',#597,#503,#504);
#403=AXIS2_PLACEMENT_3D('',#599,#505,#506);
#404=AXIS2_PLACEMENT_3D('',#600,#507,#508);
#405=AXIS2_PLACEMENT_3D('',#601,#509,#510);
#406=AXIS2_PLACEMENT_3D('',#603,#511,#512);
#407=AXIS2_PLACEMENT_3D('',#605,#513,#514);
#408=AXIS2_PLACEMENT_3D('',#606,#515,#516);
#409=AXIS2_PLACEMENT_3D('',#608,#517,#518);
#410=AXIS2_PLACEMENT_3D('',#609,#519,#520);
#411=AXIS2_PLACEMENT_3D('',#611,#521,#522);
#412=AXIS2_PLACEMENT_3D('',#612,#523,#524);
#413=AXIS2_PLACEMENT_3D('',#614,#525,#526);
#414=AXIS2_PLACEMENT_3D('',#615,#527,#528);
#415=AXIS2_PLACEMENT_3D('',#617,#529,#530);
#416=AXIS2_PLACEMENT_3D('',#618,#531,#532);
#417=DIRECTION('axis',(0.,0.,1.));
#418=DIRECTION('refdir',(1.,0.,0.));
#419=DIRECTION('center_axis',(0.,0.,1.));
#420=DIRECTION('ref_axis',(0.,-1.,0.));
#421=DIRECTION('center_axis',(0.,0.,1.));
#422=DIRECTION('ref_axis',(1.,0.,0.));
#423=DIRECTION('center_axis',(0.,0.,-1.));
#424=DIRECTION('ref_axis',(0.,-1.,0.));
#425=DIRECTION('center_axis',(0.,0.,-1.));
#426=DIRECTION('ref_axis',(-1.,0.,0.));
#427=DIRECTION('center_axis',(0.,0.,1.));
#428=DIRECTION('ref_axis',(-1.,0.,0.));
#429=DIRECTION('center_axis',(0.,0.,1.));
#430=DIRECTION('ref_axis',(0.,1.,0.));
#431=DIRECTION('center_axis',(0.,0.,1.));
#432=DIRECTION('ref_axis',(-6.12323399573677E-17,-1.,0.));
#433=DIRECTION('center_axis',(0.,0.,-1.));
#434=DIRECTION('ref_axis',(-6.12323399573677E-17,-1.,0.));
#435=DIRECTION('center_axis',(0.,0.,1.));
#436=DIRECTION('ref_axis',(0.,1.,0.));
#437=DIRECTION('center_axis',(0.,0.,1.));
#438=DIRECTION('ref_axis',(0.,1.,0.));
#439=DIRECTION('center_axis',(0.,0.,1.));
#440=DIRECTION('ref_axis',(0.,1.,0.));
#441=DIRECTION('center_axis',(0.,0.,-1.));
#442=DIRECTION('ref_axis',(-1.,0.,0.));
#443=DIRECTION('center_axis',(0.,0.,1.));
#444=DIRECTION('ref_axis',(0.,-1.,0.));
#445=DIRECTION('center_axis',(0.,0.,-1.));
#446=DIRECTION('ref_axis',(0.,-1.,0.));
#447=DIRECTION('center_axis',(0.,0.,1.));
#448=DIRECTION('ref_axis',(0.,-1.,0.));
#449=DIRECTION('center_axis',(0.,0.,1.));
#450=DIRECTION('ref_axis',(0.,1.,0.));
#451=DIRECTION('center_axis',(0.,0.,-1.));
#452=DIRECTION('ref_axis',(0.,1.,0.));
#453=DIRECTION('center_axis',(0.,0.,-1.));
#454=DIRECTION('ref_axis',(0.,-1.,0.));
#455=DIRECTION('center_axis',(0.,0.,1.));
#456=DIRECTION('ref_axis',(-1.,0.,0.));
#457=DIRECTION('center_axis',(0.,0.,1.));
#458=DIRECTION('ref_axis',(0.,1.,0.));
#459=DIRECTION('center_axis',(0.,0.,-1.));
#460=DIRECTION('ref_axis',(-1.,0.,0.));
#461=DIRECTION('center_axis',(0.,0.,-1.));
#462=DIRECTION('ref_axis',(-1.,0.,0.));
#463=DIRECTION('center_axis',(0.,0.,-1.));
#464=DIRECTION('ref_axis',(0.,1.,0.));
#465=DIRECTION('center_axis',(0.,0.,-1.));
#466=DIRECTION('ref_axis',(-1.,0.,0.));
#467=DIRECTION('center_axis',(0.,0.,-1.));
#468=DIRECTION('ref_axis',(0.,-1.,0.));
#469=DIRECTION('center_axis',(0.,0.,-1.));
#470=DIRECTION('ref_axis',(-1.,0.,0.));
#471=DIRECTION('center_axis',(0.,0.,-1.));
#472=DIRECTION('ref_axis',(0.,1.,0.));
#473=DIRECTION('center_axis',(0.,0.,-1.));
#474=DIRECTION('ref_axis',(-1.,0.,0.));
#475=DIRECTION('center_axis',(0.,0.,-1.));
#476=DIRECTION('ref_axis',(1.,0.,0.));
#477=DIRECTION('center_axis',(0.,0.,1.));
#478=DIRECTION('ref_axis',(1.,0.,0.));
#479=DIRECTION('center_axis',(0.,0.,-1.));
#480=DIRECTION('ref_axis',(1.,0.,0.));
#481=DIRECTION('center_axis',(0.,0.,1.));
#482=DIRECTION('ref_axis',(-1.,0.,0.));
#483=DIRECTION('center_axis',(0.,0.,1.));
#484=DIRECTION('ref_axis',(-1.,0.,0.));
#485=DIRECTION('center_axis',(0.,0.,1.));
#486=DIRECTION('ref_axis',(0.,1.,0.));
#487=DIRECTION('center_axis',(0.,0.,-1.));
#488=DIRECTION('ref_axis',(-1.,0.,0.));
#489=DIRECTION('center_axis',(0.,0.,1.));
#490=DIRECTION('ref_axis',(0.,1.,0.));
#491=DIRECTION('center_axis',(6.12323399573677E-17,6.16297582203915E-33,
1.));
#492=DIRECTION('ref_axis',(-0.934591439270084,0.355722984417753,5.72272207306313E-17));
#493=DIRECTION('center_axis',(-6.12323399573677E-17,-6.16297582203915E-33,
-1.));
#494=DIRECTION('ref_axis',(-0.934591439270084,0.355722984417753,5.72272207306313E-17));
#495=DIRECTION('center_axis',(6.12323399573677E-17,6.16297582203915E-33,
1.));
#496=DIRECTION('ref_axis',(-0.934591439270084,0.355722984417753,5.72272207306313E-17));
#497=DIRECTION('center_axis',(6.12323399573677E-17,6.16297582203915E-33,
1.));
#498=DIRECTION('ref_axis',(-0.934591439270084,0.355722984417753,5.72272207306313E-17));
#499=DIRECTION('center_axis',(6.12323399573677E-17,6.16297582203915E-33,
1.));
#500=DIRECTION('ref_axis',(-0.934591439270084,0.355722984417753,5.72272207306313E-17));
#501=DIRECTION('center_axis',(-6.12323399573677E-17,-6.16297582203915E-33,
-1.));
#502=DIRECTION('ref_axis',(-0.934591439270084,0.355722984417753,6.66133814775094E-17));
#503=DIRECTION('center_axis',(-6.12323399573677E-17,-6.16297582203915E-33,
-1.));
#504=DIRECTION('ref_axis',(-0.934591439270084,0.355722984417753,5.72272207306313E-17));
#505=DIRECTION('center_axis',(-6.12323399573677E-17,-6.16297582203915E-33,
-1.));
#506=DIRECTION('ref_axis',(-0.934591439270084,0.355722984417753,5.72272207306313E-17));
#507=DIRECTION('center_axis',(-6.12323399573677E-17,-6.16297582203915E-33,
-1.));
#508=DIRECTION('ref_axis',(-0.934591439270084,0.355722984417753,5.55111512312578E-17));
#509=DIRECTION('center_axis',(-7.51693510109635E-17,-8.32001735975286E-32,
1.));
#510=DIRECTION('ref_axis',(0.4033485922898,-0.915046399423459,3.03194519136099E-17));
#511=DIRECTION('center_axis',(7.51693510109635E-17,8.32001735975286E-32,
-1.));
#512=DIRECTION('ref_axis',(0.4033485922898,-0.915046399423459,3.03194519136099E-17));
#513=DIRECTION('center_axis',(-7.51693510109635E-17,-8.32001735975286E-32,
1.));
#514=DIRECTION('ref_axis',(0.403348592289801,-0.915046399423459,3.03194519136099E-17));
#515=DIRECTION('center_axis',(7.51693510109635E-17,8.32001735975286E-32,
-1.));
#516=DIRECTION('ref_axis',(-0.4033485922898,0.915046399423459,-3.03194519136099E-17));
#517=DIRECTION('center_axis',(-7.51693510109635E-17,-8.32001735975286E-32,
1.));
#518=DIRECTION('ref_axis',(0.4033485922898,-0.915046399423459,3.03194519136099E-17));
#519=DIRECTION('center_axis',(7.51693510109635E-17,8.32001735975286E-32,
-1.));
#520=DIRECTION('ref_axis',(-0.915046399423459,-0.403348592289801,-8.88178419700125E-17));
#521=DIRECTION('center_axis',(7.51693510109635E-17,8.32001735975286E-32,
-1.));
#522=DIRECTION('ref_axis',(0.915046399423459,0.403348592289801,6.87834439895803E-17));
#523=DIRECTION('center_axis',(7.51693510109635E-17,8.32001735975286E-32,
-1.));
#524=DIRECTION('ref_axis',(0.4033485922898,-0.915046399423459,3.03194519136099E-17));
#525=DIRECTION('center_axis',(7.51693510109635E-17,8.32001735975286E-32,
-1.));
#526=DIRECTION('ref_axis',(0.403348592289801,-0.915046399423459,3.03194519136099E-17));
#527=DIRECTION('center_axis',(-7.51693510109635E-17,-8.32001735975286E-32,
1.));
#528=DIRECTION('ref_axis',(0.915046399423459,0.403348592289801,6.66133814775094E-17));
#529=DIRECTION('center_axis',(7.51693510109635E-17,8.32001735975286E-32,
-1.));
#530=DIRECTION('ref_axis',(0.915046399423459,0.403348592289801,6.87834439895803E-17));
#531=DIRECTION('center_axis',(7.51693510109635E-17,8.32001735975286E-32,
-1.));
#532=DIRECTION('ref_axis',(-0.403348592289801,0.915046399423459,-3.03194519136099E-17));
#533=CARTESIAN_POINT('',(0.,0.,0.));
#534=CARTESIAN_POINT('Origin',(0.,0.,-0.139973702559259));
#535=CARTESIAN_POINT('',(0.,-17.4441394108187,-1.40140030304494));
#536=CARTESIAN_POINT('Origin',(0.,0.,-1.40140030304494));
#537=CARTESIAN_POINT('',(2.13629094933393E-15,17.4441394108187,0.95));
#538=CARTESIAN_POINT('Origin',(0.,0.,0.95));
#539=CARTESIAN_POINT('Origin',(0.,-18.9558880407563,-1.40140030304494));
#540=CARTESIAN_POINT('',(18.2295,2.23246988250567E-15,-1.40140030304494));
#541=CARTESIAN_POINT('Origin',(0.,0.,-1.40140030304494));
#542=CARTESIAN_POINT('Origin',(0.,0.,3.1));
#543=CARTESIAN_POINT('',(-1.23689326713883E-15,20.2,3.1));
#544=CARTESIAN_POINT('Origin',(0.,0.,3.1));
#545=CARTESIAN_POINT('',(3.61883129148043E-15,19.7,3.6));
#546=CARTESIAN_POINT('Origin',(0.,0.,3.6));
#547=CARTESIAN_POINT('Origin',(0.,0.,0.));
#548=CARTESIAN_POINT('',(0.,20.2,-1.4));
#549=CARTESIAN_POINT('Origin',(0.,0.,-1.4));
#550=CARTESIAN_POINT('Origin',(0.,0.,3.6));
#551=CARTESIAN_POINT('',(-19.2295,0.,3.6));
#552=CARTESIAN_POINT('Origin',(0.,0.,3.6));
#553=CARTESIAN_POINT('Origin',(0.,0.,-3.45));
#554=CARTESIAN_POINT('',(2.38806125833734E-15,19.5,-3.3));
#555=CARTESIAN_POINT('Origin',(0.,0.,-3.3));
#556=CARTESIAN_POINT('',(-2.35132185436292E-15,19.2,-3.6));
#557=CARTESIAN_POINT('Origin',(0.,0.,-3.6));
#558=CARTESIAN_POINT('Origin',(0.,0.,-2.5));
#559=CARTESIAN_POINT('',(0.,19.5,-1.7));
#560=CARTESIAN_POINT('Origin',(0.,0.,-1.7));
#561=CARTESIAN_POINT('Origin',(0.,20.2,-3.6));
#562=CARTESIAN_POINT('',(-18.2295,0.,-3.6));
#563=CARTESIAN_POINT('Origin',(0.,0.,-3.6));
#564=CARTESIAN_POINT('Origin',(0.,19.5295,1.7));
#565=CARTESIAN_POINT('',(0.,19.5295,1.7));
#566=CARTESIAN_POINT('Origin',(0.,0.,1.7));
#567=CARTESIAN_POINT('',(0.,19.2295,1.7));
#568=CARTESIAN_POINT('Origin',(0.,0.,1.7));
#569=CARTESIAN_POINT('Origin',(0.,0.,1.55));
#570=CARTESIAN_POINT('',(0.,19.5295,1.4));
#571=CARTESIAN_POINT('Origin',(0.,0.,1.4));
#572=CARTESIAN_POINT('Origin',(0.,19.2,-1.7));
#573=CARTESIAN_POINT('',(0.,19.2,-1.7));
#574=CARTESIAN_POINT('Origin',(0.,0.,-1.7));
#575=CARTESIAN_POINT('Origin',(0.,0.,-1.55));
#576=CARTESIAN_POINT('',(0.,19.2,-1.4));
#577=CARTESIAN_POINT('Origin',(0.,0.,-1.4));
#578=CARTESIAN_POINT('Origin',(0.,0.,1.4));
#579=CARTESIAN_POINT('',(-17.25,-2.11251572852918E-15,0.95));
#580=CARTESIAN_POINT('Origin',(0.,0.,0.95));
#581=CARTESIAN_POINT('',(-17.25,-2.11251572852918E-15,1.4));
#582=CARTESIAN_POINT('Origin',(0.,0.,1.4));
#583=CARTESIAN_POINT('Origin',(0.,0.,2.5));
#584=CARTESIAN_POINT('Origin',(0.,0.,1.4));
#585=CARTESIAN_POINT('Origin',(1.00256140758237E-15,0.,0.95));
#586=CARTESIAN_POINT('Origin',(0.,0.,-1.8));
#587=CARTESIAN_POINT('Origin',(0.,19.5,-1.4));
#588=CARTESIAN_POINT('Origin',(3.06161699786839E-18,3.08148791101958E-34,
-0.999999999999966));
#589=CARTESIAN_POINT('',(16.7291867629345,-6.36744142107779,-0.949999999999968));
#590=CARTESIAN_POINT('Origin',(6.12323399573677E-18,6.16297582203916E-34,
-0.949999999999966));
#591=CARTESIAN_POINT('',(16.6357276190075,-6.33186912263601,-1.04999999999997));
#592=CARTESIAN_POINT('Origin',(0.,0.,-1.04999999999997));
#593=CARTESIAN_POINT('Origin',(0.,0.,-1.04999999999997));
#594=CARTESIAN_POINT('',(16.7291867629345,-6.36744142107779,0.850000000000032));
#595=CARTESIAN_POINT('Origin',(1.16341445918999E-16,1.17096540618744E-32,
0.850000000000034));
#596=CARTESIAN_POINT('Origin',(0.,0.,-1.04999999999997));
#597=CARTESIAN_POINT('Origin',(1.19403062916867E-16,1.20178028529764E-32,
0.900000000000034));
#598=CARTESIAN_POINT('',(16.6357276190075,-6.33186912263601,0.950000000000032));
#599=CARTESIAN_POINT('Origin',(1.22464679914735E-16,1.23259516440783E-32,
0.950000000000034));
#600=CARTESIAN_POINT('Origin',(1.22464679914735E-16,1.23259516440783E-32,
0.950000000000034));
#601=CARTESIAN_POINT('Origin',(7.14108834604153E-17,7.90401649176522E-32,
-2.99999999999996));
#602=CARTESIAN_POINT('',(-7.46194895736131,16.928358389334,-2.94999999999996));
#603=CARTESIAN_POINT('Origin',(6.76524159098671E-17,7.48801562377757E-32,
-2.94999999999996));
#604=CARTESIAN_POINT('',(-7.42161409813233,16.8368537493916,-3.04999999999996));
#605=CARTESIAN_POINT('Origin',(7.51693510109635E-17,8.32001735975286E-32,
-3.04999999999996));
#606=CARTESIAN_POINT('Origin',(0.,0.,-2.04999999999996));
#607=CARTESIAN_POINT('',(-7.46194895736131,16.928358389334,-1.14999999999996));
#608=CARTESIAN_POINT('Origin',(-6.76524159098671E-17,-7.48801562377757E-32,
-1.14999999999996));
#609=CARTESIAN_POINT('Origin',(-6.95776321699906,15.7845503900547,-3.04999999999996));
#610=CARTESIAN_POINT('',(-6.95776321699906,15.7845503900547,-3.04999999999996));
#611=CARTESIAN_POINT('Origin',(7.51693510109635E-17,8.32001735975286E-32,
-3.04999999999996));
#612=CARTESIAN_POINT('Origin',(-7.14108834604153E-17,-7.90401649176522E-32,
-1.09999999999996));
#613=CARTESIAN_POINT('',(-7.42161409813233,16.8368537493916,-1.04999999999996));
#614=CARTESIAN_POINT('Origin',(-7.51693510109635E-17,-8.32001735975286E-32,
-1.04999999999996));
#615=CARTESIAN_POINT('Origin',(-7.46194895736131,16.928358389334,-1.04999999999996));
#616=CARTESIAN_POINT('',(-6.95776321699906,15.7845503900547,-1.04999999999996));
#617=CARTESIAN_POINT('Origin',(-7.51693510109635E-17,-8.32001735975286E-32,
-1.04999999999996));
#618=CARTESIAN_POINT('Origin',(0.,0.,-2.04999999999996));
#619=UNCERTAINTY_MEASURE_WITH_UNIT(LENGTH_MEASURE(0.01),#623,
'DISTANCE_ACCURACY_VALUE',
'Maximum model space distance between geometric entities at asserted c
onnectivities');
#620=UNCERTAINTY_MEASURE_WITH_UNIT(LENGTH_MEASURE(1.E-6),#623,
'DISTANCE_ACCURACY_VALUE',
'Maximum model space distance between geometric entities at asserted c
onnectivities');
#621=(
GEOMETRIC_REPRESENTATION_CONTEXT(3)
GLOBAL_UNCERTAINTY_ASSIGNED_CONTEXT((#619))
GLOBAL_UNIT_ASSIGNED_CONTEXT((#623,#626,#624))
REPRESENTATION_CONTEXT('','3D')
);
#622=(
GEOMETRIC_REPRESENTATION_CONTEXT(3)
GLOBAL_UNCERTAINTY_ASSIGNED_CONTEXT((#620))
GLOBAL_UNIT_ASSIGNED_CONTEXT((#623,#626,#624))
REPRESENTATION_CONTEXT('','3D')
);
#623=(
LENGTH_UNIT()
NAMED_UNIT(*)
SI_UNIT(.MILLI.,.METRE.)
);
#624=(
NAMED_UNIT(*)
SI_UNIT($,.STERADIAN.)
SOLID_ANGLE_UNIT()
);
#625=DIMENSIONAL_EXPONENTS(0.,0.,0.,0.,0.,0.,0.);
#626=(
CONVERSION_BASED_UNIT('degree',#628)
NAMED_UNIT(#625)
PLANE_ANGLE_UNIT()
);
#627=(
NAMED_UNIT(*)
PLANE_ANGLE_UNIT()
SI_UNIT($,.RADIAN.)
);
#628=PLANE_ANGLE_MEASURE_WITH_UNIT(PLANE_ANGLE_MEASURE(0.01745329252),#627);
#629=SHAPE_DEFINITION_REPRESENTATION(#630,#631);
#630=PRODUCT_DEFINITION_SHAPE('',$,#633);
#631=SHAPE_REPRESENTATION('',(#359),#621);
#632=PRODUCT_DEFINITION_CONTEXT('part definition',#637,'design');
#633=PRODUCT_DEFINITION('Farbfilter_Gr\X\FCn_M39x0,5',
'Farbfilter_Gr\X\FCn_M39x0,5',#634,#632);
#634=PRODUCT_DEFINITION_FORMATION('',$,#639);
#635=PRODUCT_RELATED_PRODUCT_CATEGORY('Farbfilter_Gr\X\FCn_M39x0,5',
'Farbfilter_Gr\X\FCn_M39x0,5',(#639));
#636=APPLICATION_PROTOCOL_DEFINITION('international standard',
'automotive_design',2009,#637);
#637=APPLICATION_CONTEXT(
'Core Data for Automotive Mechanical Design Process');
#638=PRODUCT_CONTEXT('part definition',#637,'mechanical');
#639=PRODUCT('Farbfilter_Gr\X\FCn_M39x0,5','Farbfilter_Gr\X\FCn_M39x0,
5',$,(#638));
#640=PRESENTATION_STYLE_ASSIGNMENT((#643));
#641=PRESENTATION_STYLE_ASSIGNMENT((#644));
#642=PRESENTATION_STYLE_ASSIGNMENT((#645));
#643=SURFACE_STYLE_USAGE(.BOTH.,#646);
#644=SURFACE_STYLE_USAGE(.BOTH.,#647);
#645=SURFACE_STYLE_USAGE(.BOTH.,#648);
#646=SURFACE_SIDE_STYLE('',(#649));
#647=SURFACE_SIDE_STYLE('',(#650));
#648=SURFACE_SIDE_STYLE('',(#651));
#649=SURFACE_STYLE_FILL_AREA(#652);
#650=SURFACE_STYLE_FILL_AREA(#653);
#651=SURFACE_STYLE_FILL_AREA(#654);
#652=FILL_AREA_STYLE('',(#655));
#653=FILL_AREA_STYLE('',(#656));
#654=FILL_AREA_STYLE('',(#657));
#655=FILL_AREA_STYLE_COLOUR('',#658);
#656=FILL_AREA_STYLE_COLOUR('',#659);
#657=FILL_AREA_STYLE_COLOUR('',#660);
#658=COLOUR_RGB('',0.956862745098039,0.945098039215686,0.972549019607843);
#659=COLOUR_RGB('',0.250980392156863,0.250980392156863,0.250980392156863);
#660=COLOUR_RGB('',0.0627450980392157,0.670588235294118,0.290196078431373);
ENDSEC;
END-ISO-10303-21;
