ISO-10303-21;
HEADER;
/* Generated by software containing ST-Developer
 * from STEP Tools, Inc. (www.steptools.com) 
 */

FILE_DESCRIPTION(
/* description */ (''),
/* implementation_level */ '2;1');

FILE_NAME(
/* name */ 
'V:\\Produktentwicklung\\CAD\\Zubeh\X\F6r\\190.116.000.26_Farbfilter_B
lau_M30,5x0,5\\TechDok\\3D-Modell\\Webseite\\Farbfilter_Blau_M30,5x0,5.
stp',
/* time_stamp */ '2020-09-07T12:04:51+02:00',
/* author */ (''),
/* organization */ ('Vision & Control'),
/* preprocessor_version */ 'ST-DEVELOPER v16.5',
/* originating_system */ 'Autodesk Inventor 2017',
/* authorisation */ '');

FILE_SCHEMA (('AUTOMOTIVE_DESIGN { 1 0 10303 214 3 1 1 }'));
ENDSEC;

DATA;
#10=MECHANICAL_DESIGN_GEOMETRIC_PRESENTATION_REPRESENTATION('',(#22,#23,
#24,#25,#28,#34,#38,#39,#30,#26,#32,#33,#27,#36,#37,#31,#29,#35,#45,#50,
#46,#49,#40,#41,#47,#42,#44,#48,#43,#51),#622);
#11=SHAPE_REPRESENTATION_RELATIONSHIP('SRR','None',#631,#12);
#12=ADVANCED_BREP_SHAPE_REPRESENTATION('',(#13,#14,#15),#621);
#13=MANIFOLD_SOLID_BREP('Volumenk\X\F6rper1',#356);
#14=MANIFOLD_SOLID_BREP('Volumenk\X\F6rper2',#357);
#15=MANIFOLD_SOLID_BREP('Volumenk\X\F6rper3',#358);
#16=CONICAL_SURFACE('',#372,15.1,45.);
#17=CONICAL_SURFACE('',#396,13.8,45.);
#18=CONICAL_SURFACE('',#402,13.8,45.);
#19=CONICAL_SURFACE('',#405,14.2,45.);
#20=CONICAL_SURFACE('',#412,14.2,45.);
#21=TOROIDAL_SURFACE('',#365,15.5,0.5);
#22=STYLED_ITEM('',(#641),#329);
#23=STYLED_ITEM('',(#641),#330);
#24=STYLED_ITEM('',(#641),#331);
#25=STYLED_ITEM('',(#641),#332);
#26=STYLED_ITEM('',(#641),#333);
#27=STYLED_ITEM('',(#641),#334);
#28=STYLED_ITEM('',(#641),#335);
#29=STYLED_ITEM('',(#641),#336);
#30=STYLED_ITEM('',(#641),#337);
#31=STYLED_ITEM('',(#641),#338);
#32=STYLED_ITEM('',(#641),#339);
#33=STYLED_ITEM('',(#641),#340);
#34=STYLED_ITEM('',(#641),#341);
#35=STYLED_ITEM('',(#641),#342);
#36=STYLED_ITEM('',(#641),#343);
#37=STYLED_ITEM('',(#641),#344);
#38=STYLED_ITEM('',(#640),#13);
#39=STYLED_ITEM('',(#642),#345);
#40=STYLED_ITEM('',(#642),#346);
#41=STYLED_ITEM('',(#642),#347);
#42=STYLED_ITEM('',(#642),#348);
#43=STYLED_ITEM('',(#642),#349);
#44=STYLED_ITEM('',(#640),#14);
#45=STYLED_ITEM('',(#641),#350);
#46=STYLED_ITEM('',(#641),#351);
#47=STYLED_ITEM('',(#641),#352);
#48=STYLED_ITEM('',(#641),#353);
#49=STYLED_ITEM('',(#641),#354);
#50=STYLED_ITEM('',(#641),#355);
#51=STYLED_ITEM('',(#640),#15);
#52=PLANE('',#363);
#53=PLANE('',#368);
#54=PLANE('',#377);
#55=PLANE('',#379);
#56=PLANE('',#381);
#57=PLANE('',#386);
#58=PLANE('',#392);
#59=PLANE('',#394);
#60=PLANE('',#401);
#61=PLANE('',#404);
#62=PLANE('',#410);
#63=PLANE('',#414);
#64=FACE_BOUND('',#121,.T.);
#65=FACE_BOUND('',#123,.T.);
#66=FACE_BOUND('',#125,.T.);
#67=FACE_BOUND('',#127,.T.);
#68=FACE_BOUND('',#129,.T.);
#69=FACE_BOUND('',#131,.T.);
#70=FACE_BOUND('',#133,.T.);
#71=FACE_BOUND('',#135,.T.);
#72=FACE_BOUND('',#137,.T.);
#73=FACE_BOUND('',#139,.T.);
#74=FACE_BOUND('',#141,.T.);
#75=FACE_BOUND('',#143,.T.);
#76=FACE_BOUND('',#145,.T.);
#77=FACE_BOUND('',#147,.T.);
#78=FACE_BOUND('',#149,.T.);
#79=FACE_BOUND('',#151,.T.);
#80=FACE_BOUND('',#153,.T.);
#81=FACE_BOUND('',#155,.T.);
#82=FACE_BOUND('',#157,.T.);
#83=FACE_BOUND('',#159,.T.);
#84=FACE_BOUND('',#162,.T.);
#85=FACE_BOUND('',#165,.T.);
#86=FACE_BOUND('',#167,.T.);
#87=FACE_BOUND('',#169,.T.);
#88=FACE_BOUND('',#171,.T.);
#89=FACE_BOUND('',#173,.T.);
#90=FACE_BOUND('',#175,.T.);
#91=FACE_OUTER_BOUND('',#120,.T.);
#92=FACE_OUTER_BOUND('',#122,.T.);
#93=FACE_OUTER_BOUND('',#124,.T.);
#94=FACE_OUTER_BOUND('',#126,.T.);
#95=FACE_OUTER_BOUND('',#128,.T.);
#96=FACE_OUTER_BOUND('',#130,.T.);
#97=FACE_OUTER_BOUND('',#132,.T.);
#98=FACE_OUTER_BOUND('',#134,.T.);
#99=FACE_OUTER_BOUND('',#136,.T.);
#100=FACE_OUTER_BOUND('',#138,.T.);
#101=FACE_OUTER_BOUND('',#140,.T.);
#102=FACE_OUTER_BOUND('',#142,.T.);
#103=FACE_OUTER_BOUND('',#144,.T.);
#104=FACE_OUTER_BOUND('',#146,.T.);
#105=FACE_OUTER_BOUND('',#148,.T.);
#106=FACE_OUTER_BOUND('',#150,.T.);
#107=FACE_OUTER_BOUND('',#152,.T.);
#108=FACE_OUTER_BOUND('',#154,.T.);
#109=FACE_OUTER_BOUND('',#156,.T.);
#110=FACE_OUTER_BOUND('',#158,.T.);
#111=FACE_OUTER_BOUND('',#160,.T.);
#112=FACE_OUTER_BOUND('',#161,.T.);
#113=FACE_OUTER_BOUND('',#163,.T.);
#114=FACE_OUTER_BOUND('',#164,.T.);
#115=FACE_OUTER_BOUND('',#166,.T.);
#116=FACE_OUTER_BOUND('',#168,.T.);
#117=FACE_OUTER_BOUND('',#170,.T.);
#118=FACE_OUTER_BOUND('',#172,.T.);
#119=FACE_OUTER_BOUND('',#174,.T.);
#120=EDGE_LOOP('',(#260));
#121=EDGE_LOOP('',(#261));
#122=EDGE_LOOP('',(#262));
#123=EDGE_LOOP('',(#263));
#124=EDGE_LOOP('',(#264));
#125=EDGE_LOOP('',(#265));
#126=EDGE_LOOP('',(#266));
#127=EDGE_LOOP('',(#267));
#128=EDGE_LOOP('',(#268));
#129=EDGE_LOOP('',(#269));
#130=EDGE_LOOP('',(#270));
#131=EDGE_LOOP('',(#271));
#132=EDGE_LOOP('',(#272));
#133=EDGE_LOOP('',(#273));
#134=EDGE_LOOP('',(#274));
#135=EDGE_LOOP('',(#275));
#136=EDGE_LOOP('',(#276));
#137=EDGE_LOOP('',(#277));
#138=EDGE_LOOP('',(#278));
#139=EDGE_LOOP('',(#279));
#140=EDGE_LOOP('',(#280));
#141=EDGE_LOOP('',(#281));
#142=EDGE_LOOP('',(#282));
#143=EDGE_LOOP('',(#283));
#144=EDGE_LOOP('',(#284));
#145=EDGE_LOOP('',(#285));
#146=EDGE_LOOP('',(#286));
#147=EDGE_LOOP('',(#287));
#148=EDGE_LOOP('',(#288));
#149=EDGE_LOOP('',(#289));
#150=EDGE_LOOP('',(#290));
#151=EDGE_LOOP('',(#291));
#152=EDGE_LOOP('',(#292));
#153=EDGE_LOOP('',(#293));
#154=EDGE_LOOP('',(#294));
#155=EDGE_LOOP('',(#295));
#156=EDGE_LOOP('',(#296));
#157=EDGE_LOOP('',(#297));
#158=EDGE_LOOP('',(#298));
#159=EDGE_LOOP('',(#299));
#160=EDGE_LOOP('',(#300));
#161=EDGE_LOOP('',(#301));
#162=EDGE_LOOP('',(#302));
#163=EDGE_LOOP('',(#303));
#164=EDGE_LOOP('',(#304));
#165=EDGE_LOOP('',(#305));
#166=EDGE_LOOP('',(#306));
#167=EDGE_LOOP('',(#307));
#168=EDGE_LOOP('',(#308));
#169=EDGE_LOOP('',(#309));
#170=EDGE_LOOP('',(#310));
#171=EDGE_LOOP('',(#311));
#172=EDGE_LOOP('',(#312));
#173=EDGE_LOOP('',(#313));
#174=EDGE_LOOP('',(#314));
#175=EDGE_LOOP('',(#315));
#176=CIRCLE('',#361,13.406914234791);
#177=CIRCLE('',#362,13.406914234791);
#178=CIRCLE('',#364,13.98);
#179=CIRCLE('',#366,15.5);
#180=CIRCLE('',#367,16.);
#181=CIRCLE('',#369,14.98);
#182=CIRCLE('',#371,16.);
#183=CIRCLE('',#373,15.25);
#184=CIRCLE('',#374,14.95);
#185=CIRCLE('',#376,15.25);
#186=CIRCLE('',#378,13.98);
#187=CIRCLE('',#380,13.1);
#188=CIRCLE('',#382,15.28);
#189=CIRCLE('',#383,14.98);
#190=CIRCLE('',#385,15.28);
#191=CIRCLE('',#387,14.95);
#192=CIRCLE('',#389,14.95);
#193=CIRCLE('',#393,13.1);
#194=CIRCLE('',#397,13.75);
#195=CIRCLE('',#398,13.85);
#196=CIRCLE('',#400,13.85);
#197=CIRCLE('',#403,13.75);
#198=CIRCLE('',#406,14.25);
#199=CIRCLE('',#407,14.15);
#200=CIRCLE('',#409,14.25);
#201=CIRCLE('',#411,13.1);
#202=CIRCLE('',#413,14.15);
#203=CIRCLE('',#415,13.1);
#204=VERTEX_POINT('',#535);
#205=VERTEX_POINT('',#537);
#206=VERTEX_POINT('',#540);
#207=VERTEX_POINT('',#543);
#208=VERTEX_POINT('',#545);
#209=VERTEX_POINT('',#548);
#210=VERTEX_POINT('',#551);
#211=VERTEX_POINT('',#554);
#212=VERTEX_POINT('',#556);
#213=VERTEX_POINT('',#559);
#214=VERTEX_POINT('',#562);
#215=VERTEX_POINT('',#565);
#216=VERTEX_POINT('',#568);
#217=VERTEX_POINT('',#570);
#218=VERTEX_POINT('',#573);
#219=VERTEX_POINT('',#576);
#220=VERTEX_POINT('',#579);
#221=VERTEX_POINT('',#584);
#222=VERTEX_POINT('',#589);
#223=VERTEX_POINT('',#591);
#224=VERTEX_POINT('',#594);
#225=VERTEX_POINT('',#598);
#226=VERTEX_POINT('',#602);
#227=VERTEX_POINT('',#604);
#228=VERTEX_POINT('',#607);
#229=VERTEX_POINT('',#610);
#230=VERTEX_POINT('',#613);
#231=VERTEX_POINT('',#616);
#232=EDGE_CURVE('',#204,#204,#176,.T.);
#233=EDGE_CURVE('',#205,#205,#177,.T.);
#234=EDGE_CURVE('',#206,#206,#178,.T.);
#235=EDGE_CURVE('',#207,#207,#179,.T.);
#236=EDGE_CURVE('',#208,#208,#180,.T.);
#237=EDGE_CURVE('',#209,#209,#181,.T.);
#238=EDGE_CURVE('',#210,#210,#182,.T.);
#239=EDGE_CURVE('',#211,#211,#183,.T.);
#240=EDGE_CURVE('',#212,#212,#184,.T.);
#241=EDGE_CURVE('',#213,#213,#185,.T.);
#242=EDGE_CURVE('',#214,#214,#186,.T.);
#243=EDGE_CURVE('',#215,#215,#187,.T.);
#244=EDGE_CURVE('',#216,#216,#188,.T.);
#245=EDGE_CURVE('',#217,#217,#189,.T.);
#246=EDGE_CURVE('',#218,#218,#190,.T.);
#247=EDGE_CURVE('',#219,#219,#191,.T.);
#248=EDGE_CURVE('',#220,#220,#192,.T.);
#249=EDGE_CURVE('',#221,#221,#193,.T.);
#250=EDGE_CURVE('',#222,#222,#194,.T.);
#251=EDGE_CURVE('',#223,#223,#195,.T.);
#252=EDGE_CURVE('',#224,#224,#196,.T.);
#253=EDGE_CURVE('',#225,#225,#197,.T.);
#254=EDGE_CURVE('',#226,#226,#198,.T.);
#255=EDGE_CURVE('',#227,#227,#199,.T.);
#256=EDGE_CURVE('',#228,#228,#200,.T.);
#257=EDGE_CURVE('',#229,#229,#201,.T.);
#258=EDGE_CURVE('',#230,#230,#202,.T.);
#259=EDGE_CURVE('',#231,#231,#203,.T.);
#260=ORIENTED_EDGE('',*,*,#232,.F.);
#261=ORIENTED_EDGE('',*,*,#233,.F.);
#262=ORIENTED_EDGE('',*,*,#234,.F.);
#263=ORIENTED_EDGE('',*,*,#232,.T.);
#264=ORIENTED_EDGE('',*,*,#235,.T.);
#265=ORIENTED_EDGE('',*,*,#236,.T.);
#266=ORIENTED_EDGE('',*,*,#235,.F.);
#267=ORIENTED_EDGE('',*,*,#237,.T.);
#268=ORIENTED_EDGE('',*,*,#238,.F.);
#269=ORIENTED_EDGE('',*,*,#236,.F.);
#270=ORIENTED_EDGE('',*,*,#239,.T.);
#271=ORIENTED_EDGE('',*,*,#240,.T.);
#272=ORIENTED_EDGE('',*,*,#241,.T.);
#273=ORIENTED_EDGE('',*,*,#239,.F.);
#274=ORIENTED_EDGE('',*,*,#240,.F.);
#275=ORIENTED_EDGE('',*,*,#242,.T.);
#276=ORIENTED_EDGE('',*,*,#233,.T.);
#277=ORIENTED_EDGE('',*,*,#243,.F.);
#278=ORIENTED_EDGE('',*,*,#244,.T.);
#279=ORIENTED_EDGE('',*,*,#245,.F.);
#280=ORIENTED_EDGE('',*,*,#244,.F.);
#281=ORIENTED_EDGE('',*,*,#246,.T.);
#282=ORIENTED_EDGE('',*,*,#241,.F.);
#283=ORIENTED_EDGE('',*,*,#247,.T.);
#284=ORIENTED_EDGE('',*,*,#248,.T.);
#285=ORIENTED_EDGE('',*,*,#247,.F.);
#286=ORIENTED_EDGE('',*,*,#234,.T.);
#287=ORIENTED_EDGE('',*,*,#242,.F.);
#288=ORIENTED_EDGE('',*,*,#245,.T.);
#289=ORIENTED_EDGE('',*,*,#237,.F.);
#290=ORIENTED_EDGE('',*,*,#246,.F.);
#291=ORIENTED_EDGE('',*,*,#249,.F.);
#292=ORIENTED_EDGE('',*,*,#238,.T.);
#293=ORIENTED_EDGE('',*,*,#248,.F.);
#294=ORIENTED_EDGE('',*,*,#243,.T.);
#295=ORIENTED_EDGE('',*,*,#249,.T.);
#296=ORIENTED_EDGE('',*,*,#250,.T.);
#297=ORIENTED_EDGE('',*,*,#251,.T.);
#298=ORIENTED_EDGE('',*,*,#252,.F.);
#299=ORIENTED_EDGE('',*,*,#251,.F.);
#300=ORIENTED_EDGE('',*,*,#250,.F.);
#301=ORIENTED_EDGE('',*,*,#252,.T.);
#302=ORIENTED_EDGE('',*,*,#253,.T.);
#303=ORIENTED_EDGE('',*,*,#253,.F.);
#304=ORIENTED_EDGE('',*,*,#254,.T.);
#305=ORIENTED_EDGE('',*,*,#255,.T.);
#306=ORIENTED_EDGE('',*,*,#256,.F.);
#307=ORIENTED_EDGE('',*,*,#254,.F.);
#308=ORIENTED_EDGE('',*,*,#255,.F.);
#309=ORIENTED_EDGE('',*,*,#257,.F.);
#310=ORIENTED_EDGE('',*,*,#258,.T.);
#311=ORIENTED_EDGE('',*,*,#256,.T.);
#312=ORIENTED_EDGE('',*,*,#258,.F.);
#313=ORIENTED_EDGE('',*,*,#259,.T.);
#314=ORIENTED_EDGE('',*,*,#259,.F.);
#315=ORIENTED_EDGE('',*,*,#257,.T.);
#316=CYLINDRICAL_SURFACE('',#360,13.406914234791);
#317=CYLINDRICAL_SURFACE('',#370,16.);
#318=CYLINDRICAL_SURFACE('',#375,15.25);
#319=CYLINDRICAL_SURFACE('',#384,15.28);
#320=CYLINDRICAL_SURFACE('',#388,14.95);
#321=CYLINDRICAL_SURFACE('',#390,13.98);
#322=CYLINDRICAL_SURFACE('',#391,14.98);
#323=CYLINDRICAL_SURFACE('',#395,13.1);
#324=CYLINDRICAL_SURFACE('',#399,13.85);
#325=CYLINDRICAL_SURFACE('',#408,14.25);
#326=CYLINDRICAL_SURFACE('',#416,13.1);
#327=ADVANCED_FACE('',(#91,#64),#316,.F.);
#328=ADVANCED_FACE('',(#92,#65),#52,.T.);
#329=ADVANCED_FACE('',(#93,#66),#21,.T.);
#330=ADVANCED_FACE('',(#94,#67),#53,.T.);
#331=ADVANCED_FACE('',(#95,#68),#317,.T.);
#332=ADVANCED_FACE('',(#96,#69),#16,.T.);
#333=ADVANCED_FACE('',(#97,#70),#318,.T.);
#334=ADVANCED_FACE('',(#98,#71),#54,.T.);
#335=ADVANCED_FACE('',(#99,#72),#55,.F.);
#336=ADVANCED_FACE('',(#100,#73),#56,.F.);
#337=ADVANCED_FACE('',(#101,#74),#319,.F.);
#338=ADVANCED_FACE('',(#102,#75),#57,.F.);
#339=ADVANCED_FACE('',(#103,#76),#320,.T.);
#340=ADVANCED_FACE('',(#104,#77),#321,.F.);
#341=ADVANCED_FACE('',(#105,#78),#322,.F.);
#342=ADVANCED_FACE('',(#106,#79),#58,.T.);
#343=ADVANCED_FACE('',(#107,#80),#59,.T.);
#344=ADVANCED_FACE('',(#108,#81),#323,.F.);
#345=ADVANCED_FACE('',(#109,#82),#17,.T.);
#346=ADVANCED_FACE('',(#110,#83),#324,.T.);
#347=ADVANCED_FACE('',(#111),#60,.F.);
#348=ADVANCED_FACE('',(#112,#84),#18,.T.);
#349=ADVANCED_FACE('',(#113),#61,.T.);
#350=ADVANCED_FACE('',(#114,#85),#19,.T.);
#351=ADVANCED_FACE('',(#115,#86),#325,.T.);
#352=ADVANCED_FACE('',(#116,#87),#62,.T.);
#353=ADVANCED_FACE('',(#117,#88),#20,.T.);
#354=ADVANCED_FACE('',(#118,#89),#63,.T.);
#355=ADVANCED_FACE('',(#119,#90),#326,.F.);
#356=CLOSED_SHELL('',(#327,#328,#329,#330,#331,#332,#333,#334,#335,#336,
#337,#338,#339,#340,#341,#342,#343,#344));
#357=CLOSED_SHELL('',(#345,#346,#347,#348,#349));
#358=CLOSED_SHELL('',(#350,#351,#352,#353,#354,#355));
#359=AXIS2_PLACEMENT_3D('placement',#533,#417,#418);
#360=AXIS2_PLACEMENT_3D('',#534,#419,#420);
#361=AXIS2_PLACEMENT_3D('',#536,#421,#422);
#362=AXIS2_PLACEMENT_3D('',#538,#423,#424);
#363=AXIS2_PLACEMENT_3D('',#539,#425,#426);
#364=AXIS2_PLACEMENT_3D('',#541,#427,#428);
#365=AXIS2_PLACEMENT_3D('',#542,#429,#430);
#366=AXIS2_PLACEMENT_3D('',#544,#431,#432);
#367=AXIS2_PLACEMENT_3D('',#546,#433,#434);
#368=AXIS2_PLACEMENT_3D('',#547,#435,#436);
#369=AXIS2_PLACEMENT_3D('',#549,#437,#438);
#370=AXIS2_PLACEMENT_3D('',#550,#439,#440);
#371=AXIS2_PLACEMENT_3D('',#552,#441,#442);
#372=AXIS2_PLACEMENT_3D('',#553,#443,#444);
#373=AXIS2_PLACEMENT_3D('',#555,#445,#446);
#374=AXIS2_PLACEMENT_3D('',#557,#447,#448);
#375=AXIS2_PLACEMENT_3D('',#558,#449,#450);
#376=AXIS2_PLACEMENT_3D('',#560,#451,#452);
#377=AXIS2_PLACEMENT_3D('',#561,#453,#454);
#378=AXIS2_PLACEMENT_3D('',#563,#455,#456);
#379=AXIS2_PLACEMENT_3D('',#564,#457,#458);
#380=AXIS2_PLACEMENT_3D('',#566,#459,#460);
#381=AXIS2_PLACEMENT_3D('',#567,#461,#462);
#382=AXIS2_PLACEMENT_3D('',#569,#463,#464);
#383=AXIS2_PLACEMENT_3D('',#571,#465,#466);
#384=AXIS2_PLACEMENT_3D('',#572,#467,#468);
#385=AXIS2_PLACEMENT_3D('',#574,#469,#470);
#386=AXIS2_PLACEMENT_3D('',#575,#471,#472);
#387=AXIS2_PLACEMENT_3D('',#577,#473,#474);
#388=AXIS2_PLACEMENT_3D('',#578,#475,#476);
#389=AXIS2_PLACEMENT_3D('',#580,#477,#478);
#390=AXIS2_PLACEMENT_3D('',#581,#479,#480);
#391=AXIS2_PLACEMENT_3D('',#582,#481,#482);
#392=AXIS2_PLACEMENT_3D('',#583,#483,#484);
#393=AXIS2_PLACEMENT_3D('',#585,#485,#486);
#394=AXIS2_PLACEMENT_3D('',#586,#487,#488);
#395=AXIS2_PLACEMENT_3D('',#587,#489,#490);
#396=AXIS2_PLACEMENT_3D('',#588,#491,#492);
#397=AXIS2_PLACEMENT_3D('',#590,#493,#494);
#398=AXIS2_PLACEMENT_3D('',#592,#495,#496);
#399=AXIS2_PLACEMENT_3D('',#593,#497,#498);
#400=AXIS2_PLACEMENT_3D('',#595,#499,#500);
#401=AXIS2_PLACEMENT_3D('',#596,#501,#502);
#402=AXIS2_PLACEMENT_3D('',#597,#503,#504);
#403=AXIS2_PLACEMENT_3D('',#599,#505,#506);
#404=AXIS2_PLACEMENT_3D('',#600,#507,#508);
#405=AXIS2_PLACEMENT_3D('',#601,#509,#510);
#406=AXIS2_PLACEMENT_3D('',#603,#511,#512);
#407=AXIS2_PLACEMENT_3D('',#605,#513,#514);
#408=AXIS2_PLACEMENT_3D('',#606,#515,#516);
#409=AXIS2_PLACEMENT_3D('',#608,#517,#518);
#410=AXIS2_PLACEMENT_3D('',#609,#519,#520);
#411=AXIS2_PLACEMENT_3D('',#611,#521,#522);
#412=AXIS2_PLACEMENT_3D('',#612,#523,#524);
#413=AXIS2_PLACEMENT_3D('',#614,#525,#526);
#414=AXIS2_PLACEMENT_3D('',#615,#527,#528);
#415=AXIS2_PLACEMENT_3D('',#617,#529,#530);
#416=AXIS2_PLACEMENT_3D('',#618,#531,#532);
#417=DIRECTION('axis',(0.,0.,1.));
#418=DIRECTION('refdir',(1.,0.,0.));
#419=DIRECTION('center_axis',(0.,1.,0.));
#420=DIRECTION('ref_axis',(0.,0.,1.));
#421=DIRECTION('center_axis',(0.,1.,0.));
#422=DIRECTION('ref_axis',(1.,0.,0.));
#423=DIRECTION('center_axis',(0.,-1.,0.));
#424=DIRECTION('ref_axis',(0.,0.,1.));
#425=DIRECTION('center_axis',(0.,-1.,0.));
#426=DIRECTION('ref_axis',(0.,0.,-1.));
#427=DIRECTION('center_axis',(0.,1.,0.));
#428=DIRECTION('ref_axis',(0.,0.,-1.));
#429=DIRECTION('center_axis',(0.,-1.,0.));
#430=DIRECTION('ref_axis',(0.,0.,-1.));
#431=DIRECTION('center_axis',(0.,-1.,0.));
#432=DIRECTION('ref_axis',(-1.22464679914735E-16,0.,-1.));
#433=DIRECTION('center_axis',(0.,1.,0.));
#434=DIRECTION('ref_axis',(-1.22464679914735E-16,0.,-1.));
#435=DIRECTION('center_axis',(0.,1.,0.));
#436=DIRECTION('ref_axis',(0.,0.,1.));
#437=DIRECTION('center_axis',(0.,-1.,0.));
#438=DIRECTION('ref_axis',(0.,0.,1.));
#439=DIRECTION('center_axis',(0.,-1.,0.));
#440=DIRECTION('ref_axis',(0.,0.,1.));
#441=DIRECTION('center_axis',(0.,-1.,0.));
#442=DIRECTION('ref_axis',(0.,0.,1.));
#443=DIRECTION('center_axis',(0.,1.,0.));
#444=DIRECTION('ref_axis',(0.,0.,-1.));
#445=DIRECTION('center_axis',(0.,-1.,0.));
#446=DIRECTION('ref_axis',(0.,0.,-1.));
#447=DIRECTION('center_axis',(0.,1.,0.));
#448=DIRECTION('ref_axis',(0.,0.,-1.));
#449=DIRECTION('center_axis',(0.,-1.,0.));
#450=DIRECTION('ref_axis',(0.,0.,1.));
#451=DIRECTION('center_axis',(0.,-1.,0.));
#452=DIRECTION('ref_axis',(0.,0.,1.));
#453=DIRECTION('center_axis',(0.,-1.,0.));
#454=DIRECTION('ref_axis',(0.,0.,-1.));
#455=DIRECTION('center_axis',(0.,1.,0.));
#456=DIRECTION('ref_axis',(0.,0.,-1.));
#457=DIRECTION('center_axis',(0.,1.,0.));
#458=DIRECTION('ref_axis',(0.,0.,1.));
#459=DIRECTION('center_axis',(0.,-1.,0.));
#460=DIRECTION('ref_axis',(0.,0.,1.));
#461=DIRECTION('center_axis',(0.,1.,0.));
#462=DIRECTION('ref_axis',(0.,0.,1.));
#463=DIRECTION('center_axis',(0.,-1.,0.));
#464=DIRECTION('ref_axis',(0.,0.,-1.));
#465=DIRECTION('center_axis',(0.,-1.,0.));
#466=DIRECTION('ref_axis',(0.,0.,1.));
#467=DIRECTION('center_axis',(0.,-1.,0.));
#468=DIRECTION('ref_axis',(0.,0.,1.));
#469=DIRECTION('center_axis',(0.,-1.,0.));
#470=DIRECTION('ref_axis',(0.,0.,-1.));
#471=DIRECTION('center_axis',(0.,-1.,0.));
#472=DIRECTION('ref_axis',(0.,0.,-1.));
#473=DIRECTION('center_axis',(0.,-1.,0.));
#474=DIRECTION('ref_axis',(0.,0.,-1.));
#475=DIRECTION('center_axis',(0.,-1.,0.));
#476=DIRECTION('ref_axis',(0.,0.,1.));
#477=DIRECTION('center_axis',(0.,-1.,0.));
#478=DIRECTION('ref_axis',(0.,0.,-1.));
#479=DIRECTION('center_axis',(0.,-1.,0.));
#480=DIRECTION('ref_axis',(0.,0.,-1.));
#481=DIRECTION('center_axis',(0.,1.,0.));
#482=DIRECTION('ref_axis',(0.,0.,1.));
#483=DIRECTION('center_axis',(0.,1.,0.));
#484=DIRECTION('ref_axis',(0.,0.,1.));
#485=DIRECTION('center_axis',(0.,1.,0.));
#486=DIRECTION('ref_axis',(0.,0.,1.));
#487=DIRECTION('center_axis',(0.,-1.,0.));
#488=DIRECTION('ref_axis',(0.,0.,-1.));
#489=DIRECTION('center_axis',(0.,-1.,0.));
#490=DIRECTION('ref_axis',(0.,0.,1.));
#491=DIRECTION('center_axis',(-5.80696138277085E-17,-1.,1.40701562244274E-18));
#492=DIRECTION('ref_axis',(0.375481890210366,-2.050002445306E-17,0.926829730923675));
#493=DIRECTION('center_axis',(-5.80696138277085E-17,-1.,1.40701562244274E-18));
#494=DIRECTION('ref_axis',(0.375481890210366,-2.050002445306E-17,0.926829730923675));
#495=DIRECTION('center_axis',(5.80696138277085E-17,1.,-1.40701562244274E-18));
#496=DIRECTION('ref_axis',(0.375481890210366,-2.05000244530599E-17,0.926829730923674));
#497=DIRECTION('center_axis',(5.80696138277085E-17,1.,-1.40701562244274E-18));
#498=DIRECTION('ref_axis',(0.375481890210366,-2.05000244530599E-17,0.926829730923674));
#499=DIRECTION('center_axis',(-5.80696138277085E-17,-1.,1.40701562244274E-18));
#500=DIRECTION('ref_axis',(0.375481890210366,-2.05000244530599E-17,0.926829730923674));
#501=DIRECTION('center_axis',(-5.80696138277085E-17,-1.,1.40701562244274E-18));
#502=DIRECTION('ref_axis',(0.375481890210366,-2.22044604925031E-17,0.926829730923675));
#503=DIRECTION('center_axis',(5.80696138277085E-17,1.,-1.40701562244274E-18));
#504=DIRECTION('ref_axis',(0.375481890210366,-2.050002445306E-17,0.926829730923675));
#505=DIRECTION('center_axis',(5.80696138277085E-17,1.,-1.40701562244274E-18));
#506=DIRECTION('ref_axis',(0.375481890210366,-2.050002445306E-17,0.926829730923675));
#507=DIRECTION('center_axis',(-5.80696138277085E-17,-1.,1.40701562244274E-18));
#508=DIRECTION('ref_axis',(0.375481890210366,-2.22044604925031E-17,0.926829730923675));
#509=DIRECTION('center_axis',(9.45320702317156E-17,-1.,-6.16297582203915E-33));
#510=DIRECTION('ref_axis',(-0.366966723716345,-3.46901240990561E-17,-0.930234069299169));
#511=DIRECTION('center_axis',(-9.45320702317156E-17,1.,6.16297582203915E-33));
#512=DIRECTION('ref_axis',(-0.366966723716345,-3.46901240990561E-17,-0.930234069299169));
#513=DIRECTION('center_axis',(9.45320702317156E-17,-1.,-6.16297582203915E-33));
#514=DIRECTION('ref_axis',(-0.366966723716345,-3.46901240990561E-17,-0.93023406929917));
#515=DIRECTION('center_axis',(-9.45320702317156E-17,1.,6.16297582203915E-33));
#516=DIRECTION('ref_axis',(0.366966723716345,3.46901240990561E-17,0.930234069299169));
#517=DIRECTION('center_axis',(9.45320702317156E-17,-1.,-6.16297582203915E-33));
#518=DIRECTION('ref_axis',(-0.366966723716345,-3.46901240990561E-17,-0.930234069299169));
#519=DIRECTION('center_axis',(-9.45320702317156E-17,1.,6.16297582203915E-33));
#520=DIRECTION('ref_axis',(0.366966723716345,4.44089209850063E-17,0.93023406929917));
#521=DIRECTION('center_axis',(-9.45320702317156E-17,1.,6.16297582203915E-33));
#522=DIRECTION('ref_axis',(-0.366966723716345,-3.46901240990561E-17,-0.93023406929917));
#523=DIRECTION('center_axis',(-9.45320702317156E-17,1.,6.16297582203915E-33));
#524=DIRECTION('ref_axis',(-0.366966723716345,-3.46901240990561E-17,-0.930234069299169));
#525=DIRECTION('center_axis',(-9.45320702317156E-17,1.,6.16297582203915E-33));
#526=DIRECTION('ref_axis',(-0.366966723716345,-3.46901240990561E-17,-0.93023406929917));
#527=DIRECTION('center_axis',(9.45320702317156E-17,-1.,-6.16297582203915E-33));
#528=DIRECTION('ref_axis',(-0.366966723716345,-4.44089209850063E-17,-0.93023406929917));
#529=DIRECTION('center_axis',(-9.45320702317156E-17,1.,6.16297582203915E-33));
#530=DIRECTION('ref_axis',(-0.366966723716345,-3.46901240990561E-17,-0.93023406929917));
#531=DIRECTION('center_axis',(-9.45320702317156E-17,1.,6.16297582203915E-33));
#532=DIRECTION('ref_axis',(0.366966723716345,3.46901240990561E-17,0.93023406929917));
#533=CARTESIAN_POINT('',(0.,0.,0.));
#534=CARTESIAN_POINT('Origin',(0.,-0.321239738773247,0.));
#535=CARTESIAN_POINT('',(0.,-1.59726256169005,13.406914234791));
#536=CARTESIAN_POINT('Origin',(0.,-1.59726256169005,0.));
#537=CARTESIAN_POINT('',(1.64187346040799E-15,0.75,-13.406914234791));
#538=CARTESIAN_POINT('Origin',(0.,0.75,0.));
#539=CARTESIAN_POINT('Origin',(0.,-1.59726256169005,14.5420428909756));
#540=CARTESIAN_POINT('',(1.712056225208E-15,-1.59726256169005,13.98));
#541=CARTESIAN_POINT('Origin',(0.,-1.59726256169005,0.));
#542=CARTESIAN_POINT('Origin',(0.,2.75,0.));
#543=CARTESIAN_POINT('',(0.,3.25,15.5));
#544=CARTESIAN_POINT('Origin',(0.,3.25,0.));
#545=CARTESIAN_POINT('',(3.91886975727153E-15,2.75,16.));
#546=CARTESIAN_POINT('Origin',(0.,2.75,0.));
#547=CARTESIAN_POINT('Origin',(0.,3.25,14.55));
#548=CARTESIAN_POINT('',(0.,3.25,14.98));
#549=CARTESIAN_POINT('Origin',(0.,3.25,0.));
#550=CARTESIAN_POINT('Origin',(0.,1.25,0.));
#551=CARTESIAN_POINT('',(0.,-0.75,16.));
#552=CARTESIAN_POINT('Origin',(0.,-0.75,0.));
#553=CARTESIAN_POINT('Origin',(0.,-3.1,0.));
#554=CARTESIAN_POINT('',(-1.86758636869971E-15,-2.95,15.25));
#555=CARTESIAN_POINT('Origin',(0.,-2.95,0.));
#556=CARTESIAN_POINT('',(1.83084696472529E-15,-3.25,14.95));
#557=CARTESIAN_POINT('Origin',(0.,-3.25,0.));
#558=CARTESIAN_POINT('Origin',(0.,-2.,0.));
#559=CARTESIAN_POINT('',(0.,-1.05,15.25));
#560=CARTESIAN_POINT('Origin',(0.,-1.05,0.));
#561=CARTESIAN_POINT('Origin',(0.,-3.25,14.175));
#562=CARTESIAN_POINT('',(0.,-3.25,-13.98));
#563=CARTESIAN_POINT('Origin',(0.,-3.25,0.));
#564=CARTESIAN_POINT('Origin',(0.,0.75,14.));
#565=CARTESIAN_POINT('',(0.,0.75,13.1));
#566=CARTESIAN_POINT('Origin',(0.,0.75,0.));
#567=CARTESIAN_POINT('Origin',(0.,1.55,15.28));
#568=CARTESIAN_POINT('',(0.,1.55,15.28));
#569=CARTESIAN_POINT('Origin',(0.,1.55,0.));
#570=CARTESIAN_POINT('',(0.,1.55,14.98));
#571=CARTESIAN_POINT('Origin',(0.,1.55,0.));
#572=CARTESIAN_POINT('Origin',(0.,1.4,0.));
#573=CARTESIAN_POINT('',(0.,1.25,15.28));
#574=CARTESIAN_POINT('Origin',(0.,1.25,0.));
#575=CARTESIAN_POINT('Origin',(0.,-1.05,14.95));
#576=CARTESIAN_POINT('',(0.,-1.05,14.95));
#577=CARTESIAN_POINT('Origin',(0.,-1.05,0.));
#578=CARTESIAN_POINT('Origin',(0.,-0.9,0.));
#579=CARTESIAN_POINT('',(0.,-0.75,14.95));
#580=CARTESIAN_POINT('Origin',(0.,-0.75,0.));
#581=CARTESIAN_POINT('Origin',(0.,-1.75,0.));
#582=CARTESIAN_POINT('Origin',(0.,2.25,0.));
#583=CARTESIAN_POINT('Origin',(0.,1.25,0.));
#584=CARTESIAN_POINT('',(-1.60428730688303E-15,1.25,-13.1));
#585=CARTESIAN_POINT('Origin',(0.,1.25,0.));
#586=CARTESIAN_POINT('Origin',(0.,-0.75,15.625));
#587=CARTESIAN_POINT('Origin',(0.,0.,0.));
#588=CARTESIAN_POINT('Origin',(1.13235746964032E-16,0.700000000000018,-2.74368046376334E-18));
#589=CARTESIAN_POINT('',(-5.16287599039252,0.750000000000019,-12.7439088002005));
#590=CARTESIAN_POINT('Origin',(1.16139227655417E-16,0.750000000000018,-2.81403124488548E-18));
#591=CARTESIAN_POINT('',(-5.20042417941356,0.650000000000018,-12.8365917732929));
#592=CARTESIAN_POINT('Origin',(1.10332266272646E-16,0.650000000000018,-2.6733296826412E-18));
#593=CARTESIAN_POINT('Origin',(7.49282876519729E-32,-1.24999999999998,1.45218933428484E-33));
#594=CARTESIAN_POINT('',(-5.20042417941356,-1.14999999999998,-12.8365917732929));
#595=CARTESIAN_POINT('Origin',(5.80696138277093E-18,-1.14999999999998,-1.40701562244273E-19));
#596=CARTESIAN_POINT('Origin',(1.16139227655417E-16,0.750000000000018,-2.81403124488548E-18));
#597=CARTESIAN_POINT('Origin',(2.9034806913855E-18,-1.19999999999998,-7.03507811221356E-20));
#598=CARTESIAN_POINT('',(-5.16287599039253,-1.24999999999998,-12.7439088002005));
#599=CARTESIAN_POINT('Origin',(7.49282876519729E-32,-1.24999999999998,1.45218933428484E-33));
#600=CARTESIAN_POINT('Origin',(7.49282876519729E-32,-1.24999999999998,1.45218933428484E-33));
#601=CARTESIAN_POINT('Origin',(-5.19926386274436E-17,-1.3,-1.09428884926981E-32));
#602=CARTESIAN_POINT('',(5.22927581295791,-1.35,13.2558354875132));
#603=CARTESIAN_POINT('Origin',(-4.72660351158578E-17,-1.35,-1.12510372838E-32));
#604=CARTESIAN_POINT('',(5.19257914058628,-1.25,13.1628120805832));
#605=CARTESIAN_POINT('Origin',(-5.67192421390294E-17,-1.25,-1.06347397015961E-32));
#606=CARTESIAN_POINT('Origin',(-5.65401761439186E-33,-1.85,-1.43325251948196E-32));
#607=CARTESIAN_POINT('',(5.22927581295791,-2.35,13.2558354875132));
#608=CARTESIAN_POINT('Origin',(4.72660351158578E-17,-2.35,-1.74140131058392E-32));
#609=CARTESIAN_POINT('Origin',(4.80726408068412,-1.25,12.1860663078191));
#610=CARTESIAN_POINT('',(4.80726408068412,-1.25,12.1860663078191));
#611=CARTESIAN_POINT('Origin',(-5.67192421390294E-17,-1.25,-1.06347397015961E-32));
#612=CARTESIAN_POINT('Origin',(5.19926386274436E-17,-2.4,-1.77221618969412E-32));
#613=CARTESIAN_POINT('',(5.19257914058628,-2.45,13.1628120805832));
#614=CARTESIAN_POINT('Origin',(5.67192421390294E-17,-2.45,-1.80303106880431E-32));
#615=CARTESIAN_POINT('Origin',(5.22927581295791,-2.45,13.2558354875132));
#616=CARTESIAN_POINT('',(4.80726408068412,-2.45,12.1860663078191));
#617=CARTESIAN_POINT('Origin',(5.67192421390294E-17,-2.45,-1.80303106880431E-32));
#618=CARTESIAN_POINT('Origin',(-5.65401761439186E-33,-1.85,-1.43325251948196E-32));
#619=UNCERTAINTY_MEASURE_WITH_UNIT(LENGTH_MEASURE(0.01),#623,
'DISTANCE_ACCURACY_VALUE',
'Maximum model space distance between geometric entities at asserted c
onnectivities');
#620=UNCERTAINTY_MEASURE_WITH_UNIT(LENGTH_MEASURE(1.E-6),#623,
'DISTANCE_ACCURACY_VALUE',
'Maximum model space distance between geometric entities at asserted c
onnectivities');
#621=(
GEOMETRIC_REPRESENTATION_CONTEXT(3)
GLOBAL_UNCERTAINTY_ASSIGNED_CONTEXT((#619))
GLOBAL_UNIT_ASSIGNED_CONTEXT((#623,#626,#624))
REPRESENTATION_CONTEXT('','3D')
);
#622=(
GEOMETRIC_REPRESENTATION_CONTEXT(3)
GLOBAL_UNCERTAINTY_ASSIGNED_CONTEXT((#620))
GLOBAL_UNIT_ASSIGNED_CONTEXT((#623,#626,#624))
REPRESENTATION_CONTEXT('','3D')
);
#623=(
LENGTH_UNIT()
NAMED_UNIT(*)
SI_UNIT(.MILLI.,.METRE.)
);
#624=(
NAMED_UNIT(*)
SI_UNIT($,.STERADIAN.)
SOLID_ANGLE_UNIT()
);
#625=DIMENSIONAL_EXPONENTS(0.,0.,0.,0.,0.,0.,0.);
#626=(
CONVERSION_BASED_UNIT('degree',#628)
NAMED_UNIT(#625)
PLANE_ANGLE_UNIT()
);
#627=(
NAMED_UNIT(*)
PLANE_ANGLE_UNIT()
SI_UNIT($,.RADIAN.)
);
#628=PLANE_ANGLE_MEASURE_WITH_UNIT(PLANE_ANGLE_MEASURE(0.01745329252),#627);
#629=SHAPE_DEFINITION_REPRESENTATION(#630,#631);
#630=PRODUCT_DEFINITION_SHAPE('',$,#633);
#631=SHAPE_REPRESENTATION('',(#359),#621);
#632=PRODUCT_DEFINITION_CONTEXT('part definition',#637,'design');
#633=PRODUCT_DEFINITION('Farbfilter_Blau_M30,5x0,5',
'Farbfilter_Blau_M30,5x0,5',#634,#632);
#634=PRODUCT_DEFINITION_FORMATION('',$,#639);
#635=PRODUCT_RELATED_PRODUCT_CATEGORY('Farbfilter_Blau_M30,5x0,5',
'Farbfilter_Blau_M30,5x0,5',(#639));
#636=APPLICATION_PROTOCOL_DEFINITION('international standard',
'automotive_design',2009,#637);
#637=APPLICATION_CONTEXT(
'Core Data for Automotive Mechanical Design Process');
#638=PRODUCT_CONTEXT('part definition',#637,'mechanical');
#639=PRODUCT('Farbfilter_Blau_M30,5x0,5','Farbfilter_Blau_M30,5x0,5',$,
(#638));
#640=PRESENTATION_STYLE_ASSIGNMENT((#643));
#641=PRESENTATION_STYLE_ASSIGNMENT((#644));
#642=PRESENTATION_STYLE_ASSIGNMENT((#645));
#643=SURFACE_STYLE_USAGE(.BOTH.,#646);
#644=SURFACE_STYLE_USAGE(.BOTH.,#647);
#645=SURFACE_STYLE_USAGE(.BOTH.,#648);
#646=SURFACE_SIDE_STYLE('',(#649));
#647=SURFACE_SIDE_STYLE('',(#650));
#648=SURFACE_SIDE_STYLE('',(#651));
#649=SURFACE_STYLE_FILL_AREA(#652);
#650=SURFACE_STYLE_FILL_AREA(#653);
#651=SURFACE_STYLE_FILL_AREA(#654);
#652=FILL_AREA_STYLE('',(#655));
#653=FILL_AREA_STYLE('',(#656));
#654=FILL_AREA_STYLE('',(#657));
#655=FILL_AREA_STYLE_COLOUR('',#658);
#656=FILL_AREA_STYLE_COLOUR('',#659);
#657=FILL_AREA_STYLE_COLOUR('',#660);
#658=COLOUR_RGB('',0.956862745098039,0.945098039215686,0.972549019607843);
#659=COLOUR_RGB('',0.250980392156863,0.250980392156863,0.250980392156863);
#660=COLOUR_RGB('',0.00392156862745098,0.243137254901961,0.945098039215686);
ENDSEC;
END-ISO-10303-21;
