ISO-10303-21;
HEADER;
/* Generated by software containing ST-Developer
 * from STEP Tools, Inc. (www.steptools.com) 
 */

FILE_DESCRIPTION(
/* description */ (''),
/* implementation_level */ '2;1');

FILE_NAME(
/* name */ 
'V:\\Produktentwicklung\\CAD\\Zubeh\X\F6r\\Ringbeleuchtung\\208.130.00
0.26_RK3652_R\\ME\\extern\\208.130.071.10_Adapterring_d73_M39x0,5.stp',

/* time_stamp */ '2022-06-03T09:39:13+02:00',
/* author */ (''),
/* organization */ ('Vision & Control'),
/* preprocessor_version */ 'ST-DEVELOPER v16.5',
/* originating_system */ 'Autodesk Inventor 2017',
/* authorisation */ '');

FILE_SCHEMA (('AUTOMOTIVE_DESIGN { 1 0 10303 214 3 1 1 }'));
ENDSEC;

DATA;
#10=MECHANICAL_DESIGN_GEOMETRIC_PRESENTATION_REPRESENTATION('',(#13),#249);
#11=SHAPE_REPRESENTATION_RELATIONSHIP('SRR','None',#258,#12);
#12=ADVANCED_BREP_SHAPE_REPRESENTATION('',(#14),#248);
#13=STYLED_ITEM('',(#267),#14);
#14=MANIFOLD_SOLID_BREP('Volumenk\X\F6rper1',#136);
#15=CYLINDRICAL_SURFACE('',#149,19.5);
#16=CYLINDRICAL_SURFACE('',#153,18.);
#17=CYLINDRICAL_SURFACE('',#158,36.35);
#18=PLANE('',#147);
#19=PLANE('',#160);
#20=PLANE('',#163);
#21=FACE_BOUND('',#44,.T.);
#22=FACE_BOUND('',#46,.T.);
#23=FACE_BOUND('',#48,.T.);
#24=FACE_BOUND('',#50,.T.);
#25=FACE_BOUND('',#52,.T.);
#26=FACE_BOUND('',#54,.T.);
#27=FACE_BOUND('',#56,.T.);
#28=FACE_BOUND('',#58,.T.);
#29=FACE_BOUND('',#60,.T.);
#30=FACE_BOUND('',#62,.T.);
#31=FACE_BOUND('',#64,.T.);
#32=FACE_OUTER_BOUND('',#43,.T.);
#33=FACE_OUTER_BOUND('',#45,.T.);
#34=FACE_OUTER_BOUND('',#47,.T.);
#35=FACE_OUTER_BOUND('',#49,.T.);
#36=FACE_OUTER_BOUND('',#51,.T.);
#37=FACE_OUTER_BOUND('',#53,.T.);
#38=FACE_OUTER_BOUND('',#55,.T.);
#39=FACE_OUTER_BOUND('',#57,.T.);
#40=FACE_OUTER_BOUND('',#59,.T.);
#41=FACE_OUTER_BOUND('',#61,.T.);
#42=FACE_OUTER_BOUND('',#63,.T.);
#43=EDGE_LOOP('',(#98));
#44=EDGE_LOOP('',(#99));
#45=EDGE_LOOP('',(#100));
#46=EDGE_LOOP('',(#101));
#47=EDGE_LOOP('',(#102));
#48=EDGE_LOOP('',(#103));
#49=EDGE_LOOP('',(#104));
#50=EDGE_LOOP('',(#105));
#51=EDGE_LOOP('',(#106));
#52=EDGE_LOOP('',(#107));
#53=EDGE_LOOP('',(#108));
#54=EDGE_LOOP('',(#109));
#55=EDGE_LOOP('',(#110));
#56=EDGE_LOOP('',(#111));
#57=EDGE_LOOP('',(#112));
#58=EDGE_LOOP('',(#113));
#59=EDGE_LOOP('',(#114));
#60=EDGE_LOOP('',(#115));
#61=EDGE_LOOP('',(#116));
#62=EDGE_LOOP('',(#117));
#63=EDGE_LOOP('',(#118));
#64=EDGE_LOOP('',(#119));
#65=CIRCLE('',#145,19.5);
#66=CIRCLE('',#146,19.4);
#67=CIRCLE('',#148,18.1);
#68=CIRCLE('',#150,19.5);
#69=CIRCLE('',#152,18.);
#70=CIRCLE('',#154,18.);
#71=CIRCLE('',#156,36.35);
#72=CIRCLE('',#157,36.25);
#73=CIRCLE('',#159,36.35);
#74=CIRCLE('',#162,36.25);
#75=CIRCLE('',#164,20.);
#76=VERTEX_POINT('',#214);
#77=VERTEX_POINT('',#216);
#78=VERTEX_POINT('',#219);
#79=VERTEX_POINT('',#222);
#80=VERTEX_POINT('',#225);
#81=VERTEX_POINT('',#228);
#82=VERTEX_POINT('',#231);
#83=VERTEX_POINT('',#233);
#84=VERTEX_POINT('',#236);
#85=VERTEX_POINT('',#240);
#86=VERTEX_POINT('',#243);
#87=EDGE_CURVE('',#76,#76,#65,.T.);
#88=EDGE_CURVE('',#77,#77,#66,.T.);
#89=EDGE_CURVE('',#78,#78,#67,.T.);
#90=EDGE_CURVE('',#79,#79,#68,.T.);
#91=EDGE_CURVE('',#80,#80,#69,.T.);
#92=EDGE_CURVE('',#81,#81,#70,.T.);
#93=EDGE_CURVE('',#82,#82,#71,.T.);
#94=EDGE_CURVE('',#83,#83,#72,.T.);
#95=EDGE_CURVE('',#84,#84,#73,.T.);
#96=EDGE_CURVE('',#85,#85,#74,.T.);
#97=EDGE_CURVE('',#86,#86,#75,.T.);
#98=ORIENTED_EDGE('',*,*,#87,.T.);
#99=ORIENTED_EDGE('',*,*,#88,.T.);
#100=ORIENTED_EDGE('',*,*,#88,.F.);
#101=ORIENTED_EDGE('',*,*,#89,.F.);
#102=ORIENTED_EDGE('',*,*,#90,.T.);
#103=ORIENTED_EDGE('',*,*,#87,.F.);
#104=ORIENTED_EDGE('',*,*,#89,.T.);
#105=ORIENTED_EDGE('',*,*,#91,.T.);
#106=ORIENTED_EDGE('',*,*,#92,.F.);
#107=ORIENTED_EDGE('',*,*,#91,.F.);
#108=ORIENTED_EDGE('',*,*,#93,.T.);
#109=ORIENTED_EDGE('',*,*,#94,.T.);
#110=ORIENTED_EDGE('',*,*,#95,.F.);
#111=ORIENTED_EDGE('',*,*,#93,.F.);
#112=ORIENTED_EDGE('',*,*,#94,.F.);
#113=ORIENTED_EDGE('',*,*,#90,.F.);
#114=ORIENTED_EDGE('',*,*,#96,.T.);
#115=ORIENTED_EDGE('',*,*,#95,.T.);
#116=ORIENTED_EDGE('',*,*,#96,.F.);
#117=ORIENTED_EDGE('',*,*,#97,.F.);
#118=ORIENTED_EDGE('',*,*,#92,.T.);
#119=ORIENTED_EDGE('',*,*,#97,.T.);
#120=CONICAL_SURFACE('',#144,19.45,45.);
#121=CONICAL_SURFACE('',#151,18.05,45.);
#122=CONICAL_SURFACE('',#155,36.3,44.9999999999997);
#123=CONICAL_SURFACE('',#161,36.3,44.9999999999994);
#124=CONICAL_SURFACE('',#165,19.,45.);
#125=ADVANCED_FACE('',(#32,#21),#120,.T.);
#126=ADVANCED_FACE('',(#33,#22),#18,.T.);
#127=ADVANCED_FACE('',(#34,#23),#15,.T.);
#128=ADVANCED_FACE('',(#35,#24),#121,.F.);
#129=ADVANCED_FACE('',(#36,#25),#16,.F.);
#130=ADVANCED_FACE('',(#37,#26),#122,.T.);
#131=ADVANCED_FACE('',(#38,#27),#17,.T.);
#132=ADVANCED_FACE('',(#39,#28),#19,.T.);
#133=ADVANCED_FACE('',(#40,#29),#123,.T.);
#134=ADVANCED_FACE('',(#41,#30),#20,.T.);
#135=ADVANCED_FACE('',(#42,#31),#124,.F.);
#136=CLOSED_SHELL('',(#125,#126,#127,#128,#129,#130,#131,#132,#133,#134,
#135));
#137=DATE_TIME_ROLE('creation_date');
#138=APPLIED_DATE_AND_TIME_ASSIGNMENT(#139,#137,(#260));
#139=DATE_AND_TIME(#140,#141);
#140=CALENDAR_DATE(2013,4,9);
#141=LOCAL_TIME(14,21,48.,#142);
#142=COORDINATED_UNIVERSAL_TIME_OFFSET(0,0,.BEHIND.);
#143=AXIS2_PLACEMENT_3D('placement',#212,#166,#167);
#144=AXIS2_PLACEMENT_3D('',#213,#168,#169);
#145=AXIS2_PLACEMENT_3D('',#215,#170,#171);
#146=AXIS2_PLACEMENT_3D('',#217,#172,#173);
#147=AXIS2_PLACEMENT_3D('',#218,#174,#175);
#148=AXIS2_PLACEMENT_3D('',#220,#176,#177);
#149=AXIS2_PLACEMENT_3D('',#221,#178,#179);
#150=AXIS2_PLACEMENT_3D('',#223,#180,#181);
#151=AXIS2_PLACEMENT_3D('',#224,#182,#183);
#152=AXIS2_PLACEMENT_3D('',#226,#184,#185);
#153=AXIS2_PLACEMENT_3D('',#227,#186,#187);
#154=AXIS2_PLACEMENT_3D('',#229,#188,#189);
#155=AXIS2_PLACEMENT_3D('',#230,#190,#191);
#156=AXIS2_PLACEMENT_3D('',#232,#192,#193);
#157=AXIS2_PLACEMENT_3D('',#234,#194,#195);
#158=AXIS2_PLACEMENT_3D('',#235,#196,#197);
#159=AXIS2_PLACEMENT_3D('',#237,#198,#199);
#160=AXIS2_PLACEMENT_3D('',#238,#200,#201);
#161=AXIS2_PLACEMENT_3D('',#239,#202,#203);
#162=AXIS2_PLACEMENT_3D('',#241,#204,#205);
#163=AXIS2_PLACEMENT_3D('',#242,#206,#207);
#164=AXIS2_PLACEMENT_3D('',#244,#208,#209);
#165=AXIS2_PLACEMENT_3D('',#245,#210,#211);
#166=DIRECTION('axis',(0.,0.,1.));
#167=DIRECTION('refdir',(1.,0.,0.));
#168=DIRECTION('center_axis',(0.,0.,-1.));
#169=DIRECTION('ref_axis',(0.,-1.,0.));
#170=DIRECTION('center_axis',(0.,0.,1.));
#171=DIRECTION('ref_axis',(0.,-1.,0.));
#172=DIRECTION('center_axis',(0.,0.,-1.));
#173=DIRECTION('ref_axis',(0.,-1.,0.));
#174=DIRECTION('center_axis',(0.,0.,1.));
#175=DIRECTION('ref_axis',(1.,0.,0.));
#176=DIRECTION('center_axis',(0.,0.,1.));
#177=DIRECTION('ref_axis',(0.,-1.,0.));
#178=DIRECTION('center_axis',(0.,0.,1.));
#179=DIRECTION('ref_axis',(0.,1.,0.));
#180=DIRECTION('center_axis',(0.,0.,1.));
#181=DIRECTION('ref_axis',(0.,1.,0.));
#182=DIRECTION('center_axis',(0.,0.,1.));
#183=DIRECTION('ref_axis',(0.,-1.,0.));
#184=DIRECTION('center_axis',(0.,0.,-1.));
#185=DIRECTION('ref_axis',(0.,-1.,0.));
#186=DIRECTION('center_axis',(0.,0.,1.));
#187=DIRECTION('ref_axis',(0.,1.,0.));
#188=DIRECTION('center_axis',(0.,0.,1.));
#189=DIRECTION('ref_axis',(0.,-1.,0.));
#190=DIRECTION('center_axis',(0.,0.,-1.));
#191=DIRECTION('ref_axis',(0.,-1.,0.));
#192=DIRECTION('center_axis',(0.,0.,1.));
#193=DIRECTION('ref_axis',(0.,-1.,0.));
#194=DIRECTION('center_axis',(0.,0.,-1.));
#195=DIRECTION('ref_axis',(0.,-1.,0.));
#196=DIRECTION('center_axis',(0.,0.,1.));
#197=DIRECTION('ref_axis',(0.,1.,0.));
#198=DIRECTION('center_axis',(0.,0.,-1.));
#199=DIRECTION('ref_axis',(0.,-1.,0.));
#200=DIRECTION('center_axis',(0.,0.,1.));
#201=DIRECTION('ref_axis',(1.,0.,0.));
#202=DIRECTION('center_axis',(0.,0.,1.));
#203=DIRECTION('ref_axis',(0.,-1.,0.));
#204=DIRECTION('center_axis',(0.,0.,1.));
#205=DIRECTION('ref_axis',(0.,-1.,0.));
#206=DIRECTION('center_axis',(0.,0.,-1.));
#207=DIRECTION('ref_axis',(-1.,0.,0.));
#208=DIRECTION('center_axis',(0.,0.,-1.));
#209=DIRECTION('ref_axis',(0.,-1.,0.));
#210=DIRECTION('center_axis',(0.,0.,-1.));
#211=DIRECTION('ref_axis',(0.,-1.,0.));
#212=CARTESIAN_POINT('',(0.,0.,0.));
#213=CARTESIAN_POINT('Origin',(0.,0.,4.95));
#214=CARTESIAN_POINT('',(-2.38806125833734E-15,19.5,4.9));
#215=CARTESIAN_POINT('Origin',(0.,0.,4.9));
#216=CARTESIAN_POINT('',(2.37581479034587E-15,19.4,5.));
#217=CARTESIAN_POINT('Origin',(0.,0.,5.));
#218=CARTESIAN_POINT('Origin',(0.,18.75,5.));
#219=CARTESIAN_POINT('',(-2.21661070645671E-15,18.1,5.));
#220=CARTESIAN_POINT('Origin',(0.,0.,5.));
#221=CARTESIAN_POINT('Origin',(0.,0.,4.1));
#222=CARTESIAN_POINT('',(0.,19.5,3.2));
#223=CARTESIAN_POINT('Origin',(0.,0.,3.2));
#224=CARTESIAN_POINT('Origin',(0.,0.,4.95));
#225=CARTESIAN_POINT('',(2.20436423846524E-15,18.,4.9));
#226=CARTESIAN_POINT('Origin',(0.,0.,4.9));
#227=CARTESIAN_POINT('Origin',(0.,0.,0.250000000000001));
#228=CARTESIAN_POINT('',(-2.20436423846524E-15,18.,2.));
#229=CARTESIAN_POINT('Origin',(0.,0.,2.));
#230=CARTESIAN_POINT('Origin',(0.,0.,3.15));
#231=CARTESIAN_POINT('',(-4.45159111490063E-15,36.35,3.1));
#232=CARTESIAN_POINT('Origin',(0.,0.,3.1));
#233=CARTESIAN_POINT('',(4.43934464690916E-15,36.25,3.2));
#234=CARTESIAN_POINT('Origin',(0.,0.,3.2));
#235=CARTESIAN_POINT('Origin',(0.,0.,1.6));
#236=CARTESIAN_POINT('',(4.45159111490063E-15,36.35,0.1));
#237=CARTESIAN_POINT('Origin',(0.,0.,0.1));
#238=CARTESIAN_POINT('Origin',(0.,27.925,3.2));
#239=CARTESIAN_POINT('Origin',(0.,0.,0.05));
#240=CARTESIAN_POINT('',(-4.43934464690916E-15,36.25,0.));
#241=CARTESIAN_POINT('Origin',(0.,0.,0.));
#242=CARTESIAN_POINT('Origin',(0.,27.175,0.));
#243=CARTESIAN_POINT('',(2.44929359829471E-15,20.,0.));
#244=CARTESIAN_POINT('Origin',(0.,0.,0.));
#245=CARTESIAN_POINT('Origin',(0.,0.,1.));
#246=UNCERTAINTY_MEASURE_WITH_UNIT(LENGTH_MEASURE(0.01),#250,
'DISTANCE_ACCURACY_VALUE',
'Maximum model space distance between geometric entities at asserted c
onnectivities');
#247=UNCERTAINTY_MEASURE_WITH_UNIT(LENGTH_MEASURE(1.E-6),#250,
'DISTANCE_ACCURACY_VALUE',
'Maximum model space distance between geometric entities at asserted c
onnectivities');
#248=(
GEOMETRIC_REPRESENTATION_CONTEXT(3)
GLOBAL_UNCERTAINTY_ASSIGNED_CONTEXT((#246))
GLOBAL_UNIT_ASSIGNED_CONTEXT((#250,#253,#251))
REPRESENTATION_CONTEXT('','3D')
);
#249=(
GEOMETRIC_REPRESENTATION_CONTEXT(3)
GLOBAL_UNCERTAINTY_ASSIGNED_CONTEXT((#247))
GLOBAL_UNIT_ASSIGNED_CONTEXT((#250,#253,#251))
REPRESENTATION_CONTEXT('','3D')
);
#250=(
LENGTH_UNIT()
NAMED_UNIT(*)
SI_UNIT(.MILLI.,.METRE.)
);
#251=(
NAMED_UNIT(*)
SI_UNIT($,.STERADIAN.)
SOLID_ANGLE_UNIT()
);
#252=DIMENSIONAL_EXPONENTS(0.,0.,0.,0.,0.,0.,0.);
#253=(
CONVERSION_BASED_UNIT('degree',#255)
NAMED_UNIT(#252)
PLANE_ANGLE_UNIT()
);
#254=(
NAMED_UNIT(*)
PLANE_ANGLE_UNIT()
SI_UNIT($,.RADIAN.)
);
#255=PLANE_ANGLE_MEASURE_WITH_UNIT(PLANE_ANGLE_MEASURE(0.01745329252),#254);
#256=SHAPE_DEFINITION_REPRESENTATION(#257,#258);
#257=PRODUCT_DEFINITION_SHAPE('',$,#260);
#258=SHAPE_REPRESENTATION('',(#143),#248);
#259=PRODUCT_DEFINITION_CONTEXT('part definition',#264,'design');
#260=PRODUCT_DEFINITION('Adapterring_d73_M39x0,5',
'Adapterring_d73_M39x0,5',#261,#259);
#261=PRODUCT_DEFINITION_FORMATION('',$,#266);
#262=PRODUCT_RELATED_PRODUCT_CATEGORY(
'Adapterring_d73_M39x0,5',
'Adapterring_d73_M39x0,5',(#266));
#263=APPLICATION_PROTOCOL_DEFINITION('international standard',
'automotive_design',2009,#264);
#264=APPLICATION_CONTEXT(
'Core Data for Automotive Mechanical Design Process');
#265=PRODUCT_CONTEXT('part definition',#264,'mechanical');
#266=PRODUCT('Adapterring_d73_M39x0,5','Adapterring_d73_M39x0,5',
'',(#265));
#267=PRESENTATION_STYLE_ASSIGNMENT((#268));
#268=SURFACE_STYLE_USAGE(.BOTH.,#269);
#269=SURFACE_SIDE_STYLE('',(#270));
#270=SURFACE_STYLE_FILL_AREA(#271);
#271=FILL_AREA_STYLE('',(#272));
#272=FILL_AREA_STYLE_COLOUR('',#273);
#273=COLOUR_RGB('',0.149019607843137,0.149019607843137,0.149019607843137);
ENDSEC;
END-ISO-10303-21;
